  0
SECTION
  2
HEADER
  9
$ACADVER
  1
AC1032
  9
$ACADMAINTVER
 90
      155
  9
$DWGCODEPAGE
  3
ANSI_1252
  9
$LASTSAVEDBY
  1
monika
  9
$REQUIREDVERSIONS
160
                 0
  9
$INSBASE
 10
0.0
 20
0.0
 30
0.0
  9
$EXTMIN
 10
100.0
 20
99.99999999999991
 30
0.0
  9
$EXTMAX
 10
8300.0
 20
5840.0
 30
0.0
  9
$LIMMIN
 10
0.0
 20
0.0
  9
$LIMMAX
 10
8400.0
 20
5940.0
  9
$ORTHOMODE
 70
     0
  9
$REGENMODE
 70
     1
  9
$FILLMODE
 70
     1
  9
$QTEXTMODE
 70
     0
  9
$MIRRTEXT
 70
     1
  9
$LTSCALE
 40
20.0
  9
$ATTMODE
 70
     1
  9
$TEXTSIZE
 40
127.0
  9
$TRACEWID
 40
1.0
  9
$TEXTSTYLE
  7
Standard
  9
$CLAYER
  8
0
  9
$CELTYPE
  6
ByLayer
  9
$CECOLOR
 62
   256
  9
$CELTSCALE
 40
1.0
  9
$DISPSILH
 70
     0
  9
$DIMSCALE
 40
1.0
  9
$DIMASZ
 40
0.0
  9
$DIMEXO
 40
200.0
  9
$DIMDLI
 40
3.75
  9
$DIMRND
 40
0.0
  9
$DIMDLE
 40
0.0
  9
$DIMEXE
 40
19.812
  9
$DIMTP
 40
0.0
  9
$DIMTM
 40
0.0
  9
$DIMTXT
 40
127.0
  9
$DIMCEN
 40
2.5
  9
$DIMTSZ
 40
0.0
  9
$DIMTOL
 70
     0
  9
$DIMLIM
 70
     0
  9
$DIMTIH
 70
     1
  9
$DIMTOH
 70
     1
  9
$DIMSE1
 70
     0
  9
$DIMSE2
 70
     0
  9
$DIMTAD
 70
     1
  9
$DIMZIN
 70
     0
  9
$DIMBLK
  1

  9
$DIMASO
 70
     1
  9
$DIMSHO
 70
     1
  9
$DIMPOST
  1

  9
$DIMAPOST
  1

  9
$DIMALT
 70
     0
  9
$DIMALTD
 70
     3
  9
$DIMALTF
 40
0.0393700787401575
  9
$DIMLFAC
 40
1.0
  9
$DIMTOFL
 70
     1
  9
$DIMTVP
 40
0.0
  9
$DIMTIX
 70
     0
  9
$DIMSOXD
 70
     0
  9
$DIMSAH
 70
     0
  9
$DIMBLK1
  1

  9
$DIMBLK2
  1

  9
$DIMSTYLE
  2
ISO-25
  9
$DIMCLRD
 70
     0
  9
$DIMCLRE
 70
     0
  9
$DIMCLRT
 70
     0
  9
$DIMTFAC
 40
1.0
  9
$DIMGAP
 40
30.48
  9
$DIMJUST
 70
     0
  9
$DIMSD1
 70
     0
  9
$DIMSD2
 70
     0
  9
$DIMTOLJ
 70
     0
  9
$DIMTZIN
 70
     0
  9
$DIMALTZ
 70
     0
  9
$DIMALTTZ
 70
     0
  9
$DIMUPT
 70
     0
  9
$DIMDEC
 70
     0
  9
$DIMTDEC
 70
     0
  9
$DIMALTU
 70
     2
  9
$DIMALTTD
 70
     3
  9
$DIMTXSTY
  7
Standard
  9
$DIMAUNIT
 70
     0
  9
$DIMADEC
 70
     0
  9
$DIMALTRND
 40
0.0
  9
$DIMAZIN
 70
     0
  9
$DIMDSEP
 70
    44
  9
$DIMATFIT
 70
     3
  9
$DIMFRAC
 70
     0
  9
$DIMLDRBLK
  1

  9
$DIMLUNIT
 70
     2
  9
$DIMLWD
 70
    -2
  9
$DIMLWE
 70
    -2
  9
$DIMTMOVE
 70
     0
  9
$DIMFXL
 40
1.0
  9
$DIMFXLON
 70
     0
  9
$DIMJOGANG
 40
0.7853981633974483
  9
$DIMTFILL
 70
     0
  9
$DIMTFILLCLR
 70
     0
  9
$DIMARCSYM
 70
     0
  9
$DIMLTYPE
  6

  9
$DIMLTEX1
  6

  9
$DIMLTEX2
  6

  9
$DIMTXTDIRECTION
 70
     0
  9
$LUNITS
 70
     2
  9
$LUPREC
 70
     2
  9
$SKETCHINC
 40
1.0
  9
$FILLETRAD
 40
0.0
  9
$AUNITS
 70
     0
  9
$AUPREC
 70
     2
  9
$MENU
  1
.
  9
$ELEVATION
 40
0.0
  9
$PELEVATION
 40
0.0
  9
$THICKNESS
 40
0.0
  9
$LIMCHECK
 70
     0
  9
$CHAMFERA
 40
0.0
  9
$CHAMFERB
 40
0.0
  9
$CHAMFERC
 40
0.0
  9
$CHAMFERD
 40
0.0
  9
$SKPOLY
 70
     0
  9
$TDCREATE
 40
2460756.326527778
  9
$TDUCREATE
 40
2460756.284865857
  9
$TDUPDATE
 40
2460756.381817129
  9
$TDUUPDATE
 40
2460756.340150463
  9
$TDINDWG
 40
0.0005439931
  9
$TDUSRTIMER
 40
0.0005439931
  9
$USRTIMER
 70
     1
  9
$ANGBASE
 50
0.0
  9
$ANGDIR
 70
     0
  9
$PDMODE
 70
     0
  9
$PDSIZE
 40
-1.0
  9
$PLINEWID
 40
0.0
  9
$SPLFRAME
 70
     0
  9
$SPLINETYPE
 70
     6
  9
$SPLINESEGS
 70
     8
  9
$HANDSEED
  5
39C
  9
$SURFTAB1
 70
     6
  9
$SURFTAB2
 70
     6
  9
$SURFTYPE
 70
     6
  9
$SURFU
 70
     6
  9
$SURFV
 70
     6
  9
$UCSBASE
  2

  9
$UCSNAME
  2

  9
$UCSORG
 10
0.0
 20
0.0
 30
0.0
  9
$UCSXDIR
 10
1.0
 20
0.0
 30
0.0
  9
$UCSYDIR
 10
0.0
 20
1.0
 30
0.0
  9
$UCSORTHOREF
  2

  9
$UCSORTHOVIEW
 70
     0
  9
$UCSORGTOP
 10
0.0
 20
0.0
 30
0.0
  9
$UCSORGBOTTOM
 10
0.0
 20
0.0
 30
0.0
  9
$UCSORGLEFT
 10
0.0
 20
0.0
 30
0.0
  9
$UCSORGRIGHT
 10
0.0
 20
0.0
 30
0.0
  9
$UCSORGFRONT
 10
0.0
 20
0.0
 30
0.0
  9
$UCSORGBACK
 10
0.0
 20
0.0
 30
0.0
  9
$PUCSBASE
  2

  9
$PUCSNAME
  2

  9
$PUCSORG
 10
0.0
 20
0.0
 30
0.0
  9
$PUCSXDIR
 10
1.0
 20
0.0
 30
0.0
  9
$PUCSYDIR
 10
0.0
 20
1.0
 30
0.0
  9
$PUCSORTHOREF
  2

  9
$PUCSORTHOVIEW
 70
     0
  9
$PUCSORGTOP
 10
0.0
 20
0.0
 30
0.0
  9
$PUCSORGBOTTOM
 10
0.0
 20
0.0
 30
0.0
  9
$PUCSORGLEFT
 10
0.0
 20
0.0
 30
0.0
  9
$PUCSORGRIGHT
 10
0.0
 20
0.0
 30
0.0
  9
$PUCSORGFRONT
 10
0.0
 20
0.0
 30
0.0
  9
$PUCSORGBACK
 10
0.0
 20
0.0
 30
0.0
  9
$USERI1
 70
     0
  9
$USERI2
 70
     0
  9
$USERI3
 70
     0
  9
$USERI4
 70
     0
  9
$USERI5
 70
     0
  9
$USERR1
 40
0.0
  9
$USERR2
 40
0.0
  9
$USERR3
 40
0.0
  9
$USERR4
 40
0.0
  9
$USERR5
 40
0.0
  9
$WORLDVIEW
 70
     1
  9
$SHADEDGE
 70
     3
  9
$SHADEDIF
 70
    70
  9
$TILEMODE
 70
     1
  9
$MAXACTVP
 70
    64
  9
$PINSBASE
 10
0.0
 20
0.0
 30
0.0
  9
$PLIMCHECK
 70
     0
  9
$PEXTMIN
 10
1.000000000000000E+20
 20
1.000000000000000E+20
 30
1.000000000000000E+20
  9
$PEXTMAX
 10
-1.000000000000000E+20
 20
-1.000000000000000E+20
 30
-1.000000000000000E+20
  9
$PLIMMIN
 10
0.0
 20
0.0
  9
$PLIMMAX
 10
420.0
 20
297.0
  9
$UNITMODE
 70
     0
  9
$VISRETAIN
 70
     1
  9
$PLINEGEN
 70
     0
  9
$PSLTSCALE
 70
     1
  9
$TREEDEPTH
 70
  3020
  9
$CMLSTYLE
  2
Standard
  9
$CMLJUST
 70
     0
  9
$CMLSCALE
 40
20.0
  9
$PROXYGRAPHICS
 70
     1
  9
$MEASUREMENT
 70
     1
  9
$CELWEIGHT
370
    -1
  9
$ENDCAPS
280
     0
  9
$JOINSTYLE
280
     0
  9
$LWDISPLAY
290
     1
  9
$INSUNITS
 70
     4
  9
$HYPERLINKBASE
  1

  9
$STYLESHEET
  1

  9
$XEDIT
290
     1
  9
$CEPSNTYPE
380
     0
  9
$PSTYLEMODE
290
     1
  9
$FINGERPRINTGUID
  2
{1a0bb80e-26ad-48b0-97a0-0d257f8e6be3}
  9
$VERSIONGUID
  2
{AD459E27-808C-6E44-BD54-18054B7D68D4}
  9
$EXTNAMES
290
     1
  9
$PSVPSCALE
 40
0.0
  9
$OLESTARTUP
290
     0
  9
$SORTENTS
280
   127
  9
$INDEXCTL
280
     0
  9
$HIDETEXT
280
     1
  9
$XCLIPFRAME
280
     2
  9
$HALOGAP
280
     0
  9
$OBSCOLOR
 70
   257
  9
$OBSLTYPE
280
     0
  9
$INTERSECTIONDISPLAY
280
     0
  9
$INTERSECTIONCOLOR
 70
   257
  9
$DIMASSOC
280
     2
  9
$PROJECTNAME
  1

  9
$CAMERADISPLAY
290
     0
  9
$LENSLENGTH
 40
50.0
  9
$CAMERAHEIGHT
 40
0.0
  9
$STEPSPERSEC
 40
2.0
  9
$STEPSIZE
 40
6.0
  9
$3DDWFPREC
 40
2.0
  9
$PSOLWIDTH
 40
5.0
  9
$PSOLHEIGHT
 40
80.0
  9
$LOFTANG1
 40
1.570796326794896
  9
$LOFTANG2
 40
1.570796326794896
  9
$LOFTMAG1
 40
0.0
  9
$LOFTMAG2
 40
0.0
  9
$LOFTPARAM
 70
     7
  9
$LOFTNORMALS
280
     1
  9
$LATITUDE
 40
37.795
  9
$LONGITUDE
 40
-122.394
  9
$NORTHDIRECTION
 40
0.0
  9
$TIMEZONE
 70
 -8000
  9
$LIGHTGLYPHDISPLAY
280
     1
  9
$TILEMODELIGHTSYNCH
280
     1
  9
$CMATERIAL
347
44
  9
$SOLIDHIST
280
     0
  9
$SHOWHIST
280
     1
  9
$DWFFRAME
280
     2
  9
$DGNFRAME
280
     2
  9
$REALWORLDSCALE
290
     1
  9
$INTERFERECOLOR
 62
   256
  9
$INTERFEREOBJVS
345
33
  9
$INTERFEREVPVS
346
30
  9
$CSHADOW
280
     0
  9
$SHADOWPLANELOCATION
 40
0.0
  0
ENDSEC
  0
SECTION
  2
CLASSES
  0
CLASS
  1
ACDBDICTIONARYWDFLT
  2
AcDbDictionaryWithDefault
  3
ObjectDBX Classes
 90
        0
 91
        1
280
     0
281
     0
  0
CLASS
  1
VISUALSTYLE
  2
AcDbVisualStyle
  3
ObjectDBX Classes
 90
     4095
 91
       24
280
     0
281
     0
  0
CLASS
  1
MATERIAL
  2
AcDbMaterial
  3
ObjectDBX Classes
 90
     1153
 91
        3
280
     0
281
     0
  0
CLASS
  1
SCALE
  2
AcDbScale
  3
ObjectDBX Classes
 90
     1153
 91
       17
280
     0
281
     0
  0
CLASS
  1
TABLESTYLE
  2
AcDbTableStyle
  3
ObjectDBX Classes
 90
     4095
 91
        1
280
     0
281
     0
  0
CLASS
  1
MLEADERSTYLE
  2
AcDbMLeaderStyle
  3
ACDB_MLEADERSTYLE_CLASS
 90
     4095
 91
        1
280
     0
281
     0
  0
CLASS
  1
SUN
  2
AcDbSun
  3
SCENEOE
 90
     1153
 91
        1
280
     0
281
     0
  0
CLASS
  1
DICTIONARYVAR
  2
AcDbDictionaryVar
  3
ObjectDBX Classes
 90
        0
 91
        9
280
     0
281
     0
  0
CLASS
  1
ACDBSECTIONVIEWSTYLE
  2
AcDbSectionViewStyle
  3
ObjectDBX Classes
 90
     1025
 91
        1
280
     0
281
     0
  0
CLASS
  1
ACDBDETAILVIEWSTYLE
  2
AcDbDetailViewStyle
  3
ObjectDBX Classes
 90
     1025
 91
        1
280
     0
281
     0
  0
CLASS
  1
RAPIDRTRENDERSETTINGS
  2
AcDbRapidRTRenderSettings
  3
ObjectDBX Classes
 90
     1024
 91
        7
280
     0
281
     0
  0
CLASS
  1
CELLSTYLEMAP
  2
AcDbCellStyleMap
  3
ObjectDBX Classes
 90
     1152
 91
        1
280
     0
281
     0
  0
ENDSEC
  0
SECTION
  2
TABLES
  0
TABLE
  2
VPORT
  5
8
330
0
100
AcDbSymbolTable
 70
     1
  0
VPORT
  5
29
330
8
100
AcDbSymbolTableRecord
100
AcDbViewportTableRecord
  2
*Active
 70
     0
 10
0.0
 20
0.0
 11
1.0
 21
1.0
 12
3690.490551264142
 22
-315.9437965655052
 13
0.0
 23
0.0
 14
10.0
 24
10.0
 15
10.0
 25
10.0
 16
0.0
 26
0.0
 36
1.0
 17
0.0
 27
0.0
 37
0.0
 40
20963.61976161806
 41
1.621323529411764
 42
50.0
 43
0.0
 44
0.0
 50
0.0
 51
0.0
 71
     0
 72
  2000
 73
     1
 74
     3
 75
     0
 76
     0
 77
     0
 78
     0
281
     0
 65
     1
110
0.0
120
0.0
130
0.0
111
1.0
121
0.0
131
0.0
112
0.0
122
1.0
132
0.0
 79
     0
146
0.0
348
2F
 60
     3
 61
     5
292
     1
282
     1
141
0.0
142
0.0
 63
   250
361
5D
1001
ACAD_NAV_VCDISPLAY
1070
     3
  0
ENDTAB
  0
TABLE
  2
LTYPE
  5
5
330
0
100
AcDbSymbolTable
 70
     6
  0
LTYPE
  5
14
330
5
100
AcDbSymbolTableRecord
100
AcDbLinetypeTableRecord
  2
ByBlock
 70
     0
  3

 72
    65
 73
     0
 40
0.0
  0
LTYPE
  5
15
330
5
100
AcDbSymbolTableRecord
100
AcDbLinetypeTableRecord
  2
ByLayer
 70
     0
  3

 72
    65
 73
     0
 40
0.0
  0
LTYPE
  5
16
330
5
100
AcDbSymbolTableRecord
100
AcDbLinetypeTableRecord
  2
Continuous
 70
     0
  3
Solid line
 72
    65
 73
     0
 40
0.0
  0
LTYPE
  5
5E
330
5
100
AcDbSymbolTableRecord
100
AcDbLinetypeTableRecord
  2
HIDDEN
 70
     0
  3
Hidden __ __ __ __ __ __ __ __ __ __ __ __ __ __
 72
    65
 73
     2
 40
1.905
 49
1.27
 74
     0
 49
-0.635
 74
     0
  0
LTYPE
  5
5F
330
5
100
AcDbSymbolTableRecord
100
AcDbLinetypeTableRecord
  2
PHANTOM
 70
     0
  3
Phantom ______  __  __  ______  __  __  ______
 72
    65
 73
     6
 40
12.7
 49
6.349999999999999
 74
     0
 49
-1.27
 74
     0
 49
1.27
 74
     0
 49
-1.27
 74
     0
 49
1.27
 74
     0
 49
-1.27
 74
     0
  0
LTYPE
  5
60
330
5
100
AcDbSymbolTableRecord
100
AcDbLinetypeTableRecord
  2
CENTER
 70
     0
  3
Center ____ _ ____ _ ____ _ ____ _ ____ _ ____
 72
    65
 73
     4
 40
10.16
 49
6.349999999999999
 74
     0
 49
-1.27
 74
     0
 49
1.27
 74
     0
 49
-1.27
 74
     0
  0
LTYPE
  5
61
330
5
100
AcDbSymbolTableRecord
100
AcDbLinetypeTableRecord
  2
CENTERX2
 70
     0
  3
Center (2x) ________  __  ________  __  _____
 72
    65
 73
     4
 40
20.32
 49
12.7
 74
     0
 49
-2.54
 74
     0
 49
2.54
 74
     0
 49
-2.54
 74
     0
  0
LTYPE
  5
62
330
5
100
AcDbSymbolTableRecord
100
AcDbLinetypeTableRecord
  2
DOT2
 70
     0
  3
Dot (.5x) ........................................
 72
    65
 73
     2
 40
0.635
 49
0.0
 74
     0
 49
-0.635
 74
     0
  0
ENDTAB
  0
TABLE
  2
LAYER
  5
2
102
{ACAD_XDICTIONARY
360
38E
102
}
330
0
100
AcDbSymbolTable
 70
     2
  0
LAYER
  5
10
330
2
100
AcDbSymbolTableRecord
100
AcDbLayerTableRecord
  2
0
 70
     0
 62
     7
  6
Continuous
370
    -3
390
F
347
46
348
0
  0
LAYER
  5
63
330
2
100
AcDbSymbolTableRecord
100
AcDbLayerTableRecord
  2
FORMAT
 70
     0
 62
     7
  6
Continuous
370
    -3
390
F
347
46
348
0
  0
ENDTAB
  0
TABLE
  2
STYLE
  5
3
330
0
100
AcDbSymbolTable
 70
     2
  0
STYLE
  5
11
330
3
100
AcDbSymbolTableRecord
100
AcDbTextStyleTableRecord
  2
Standard
 70
     0
 40
0.0
 41
1.0
 50
0.0
 71
     0
 42
127.0
  3
txt
  4

  0
STYLE
  5
6B
330
3
100
AcDbSymbolTableRecord
100
AcDbTextStyleTableRecord
  2
SLDTEXTSTYLE0
 70
     0
 40
0.0
 41
0.75
 50
0.0
 71
     0
 42
127.0
  3
TXT
  4

  0
ENDTAB
  0
TABLE
  2
VIEW
  5
6
330
0
100
AcDbSymbolTable
 70
     1
  0
ENDTAB
  0
TABLE
  2
UCS
  5
7
330
0
100
AcDbSymbolTable
 70
     0
  0
ENDTAB
  0
TABLE
  2
APPID
  5
9
330
0
100
AcDbSymbolTable
 70
     2
  0
APPID
  5
12
330
9
100
AcDbSymbolTableRecord
100
AcDbRegAppTableRecord
  2
ACAD
 70
     0
  0
APPID
  5
394
330
9
100
AcDbSymbolTableRecord
100
AcDbRegAppTableRecord
  2
ACAD_NAV_VCDISPLAY
 70
     0
  0
ENDTAB
  0
TABLE
  2
DIMSTYLE
  5
A
330
0
100
AcDbSymbolTable
 70
     1
100
AcDbDimStyleTable
 71
     0
  0
DIMSTYLE
105
27
330
A
100
AcDbSymbolTableRecord
100
AcDbDimStyleTableRecord
  2
ISO-25
 70
     0
 41
2.5
 42
0.625
 43
3.75
 44
1.25
 73
     0
 74
     0
 77
     1
 78
     8
140
2.5
141
2.5
143
0.03937007874016
147
0.625
171
     3
172
     1
271
     2
272
     2
274
     3
278
    44
283
     0
284
     8
340
11
  0
ENDTAB
  0
TABLE
  2
BLOCK_RECORD
  5
1
330
0
100
AcDbSymbolTable
 70
     1
  0
BLOCK_RECORD
  5
1F
330
1
100
AcDbSymbolTableRecord
100
AcDbBlockTableRecord
  2
*Model_Space
340
22
 70
     0
280
     1
281
     0
  0
BLOCK_RECORD
  5
1B
330
1
100
AcDbSymbolTableRecord
100
AcDbBlockTableRecord
  2
*Paper_Space
340
1E
 70
     0
280
     1
281
     0
  0
BLOCK_RECORD
  5
23
330
1
100
AcDbSymbolTableRecord
100
AcDbBlockTableRecord
  2
*Paper_Space0
340
26
 70
     0
280
     1
281
     0
  0
ENDTAB
  0
ENDSEC
  0
SECTION
  2
BLOCKS
  0
BLOCK
  5
20
330
1F
100
AcDbEntity
  8
0
100
AcDbBlockBegin
  2
*Model_Space
 70
     0
 10
0.0
 20
0.0
 30
0.0
  3
*Model_Space
  1

  0
ENDBLK
  5
21
330
1F
100
AcDbEntity
  8
0
100
AcDbBlockEnd
  0
BLOCK
  5
1C
330
1B
100
AcDbEntity
 67
     1
  8
0
100
AcDbBlockBegin
  2
*Paper_Space
 70
     0
 10
0.0
 20
0.0
 30
0.0
  3
*Paper_Space
  1

  0
ENDBLK
  5
1D
330
1B
100
AcDbEntity
 67
     1
  8
0
100
AcDbBlockEnd
  0
BLOCK
  5
24
330
23
100
AcDbEntity
 67
     1
  8
0
100
AcDbBlockBegin
  2
*Paper_Space0
 70
     0
 10
0.0
 20
0.0
 30
0.0
  3
*Paper_Space0
  1

  0
ENDBLK
  5
25
330
23
100
AcDbEntity
 67
     1
  8
0
100
AcDbBlockEnd
  0
ENDSEC
  0
SECTION
  2
ENTITIES
  0
LINE
  5
6F
330
1F
100
AcDbEntity
  8
0
  6
Continuous
 62
     7
370
    25
100
AcDbLine
 10
4969.079506526822
 20
3073.513204263034
 30
0.0
 11
3709.079506526822
 21
3073.513204263034
 31
0.0
  0
LINE
  5
70
330
1F
100
AcDbEntity
  8
0
  6
Continuous
 62
     7
370
    25
100
AcDbLine
 10
3709.079506526822
 20
3039.813204263034
 30
0.0
 11
4969.079506526822
 21
3039.813204263034
 31
0.0
  0
LINE
  5
71
330
1F
100
AcDbEntity
  8
0
  6
Continuous
 62
     7
370
    25
100
AcDbLine
 10
4969.079506526822
 20
3064.663204263034
 30
0.0
 11
4967.479506526822
 21
3064.663204263034
 31
0.0
  0
LINE
  5
72
330
1F
100
AcDbEntity
  8
0
  6
Continuous
 62
     7
370
    25
100
AcDbLine
 10
4967.479506526822
 20
3048.663204263034
 30
0.0
 11
4969.079506526822
 21
3048.663204263034
 31
0.0
  0
LINE
  5
73
330
1F
100
AcDbEntity
  8
0
  6
Continuous
 62
     7
370
    25
100
AcDbLine
 10
3709.079506526822
 20
3048.663204263034
 30
0.0
 11
3710.679506526822
 21
3048.663204263034
 31
0.0
  0
LINE
  5
74
330
1F
100
AcDbEntity
  8
0
  6
Continuous
 62
     7
370
    25
100
AcDbLine
 10
3710.679506526822
 20
3064.663204263034
 30
0.0
 11
3709.079506526822
 21
3064.663204263034
 31
0.0
  0
LINE
  5
75
330
1F
100
AcDbEntity
  8
0
  6
Continuous
 62
     7
370
    25
100
AcDbLine
 10
3710.679506526822
 20
3048.763204263034
 30
0.0
 11
3715.679506526822
 21
3048.763204263034
 31
0.0
  0
LINE
  5
76
330
1F
100
AcDbEntity
  8
0
  6
Continuous
 62
     7
370
    25
100
AcDbLine
 10
3715.679506526822
 20
3064.563204263033
 30
0.0
 11
3710.679506526822
 21
3064.563204263033
 31
0.0
  0
ARC
  5
77
330
1F
100
AcDbEntity
  8
0
  6
Continuous
 62
     7
370
    25
100
AcDbCircle
 10
3711.974506526822
 20
3051.663204263033
 30
0.0
 40
4.704999999999998
100
AcDbArc
 50
321.948787924862
 51
0.0
  0
ARC
  5
78
330
1F
100
AcDbEntity
  8
0
  6
Continuous
 62
     7
370
    25
100
AcDbCircle
 10
3711.974506526822
 20
3061.663204263033
 30
0.0
 40
4.705000000000278
100
AcDbArc
 50
0.0000000000055377
 51
38.05121207514314
  0
LINE
  5
79
330
1F
100
AcDbEntity
  8
0
  6
Continuous
 62
     7
370
    25
100
AcDbLine
 10
3692.565190418893
 20
3052.663204263034
 30
0.0
 11
3693.933859134432
 21
3052.663204263034
 31
0.0
  0
LINE
  5
7A
330
1F
100
AcDbEntity
  8
0
  6
Continuous
 62
     7
370
    25
100
AcDbLine
 10
3693.933859134432
 20
3060.663204263033
 30
0.0
 11
3692.565190418893
 21
3060.663204263033
 31
0.0
  0
ARC
  5
7B
330
1F
100
AcDbEntity
  8
0
  6
Continuous
 62
     7
370
    25
100
AcDbCircle
 10
4966.184506526822
 20
3061.663204263033
 30
0.0
 40
4.704999999999927
100
AcDbArc
 50
141.94878792485
 51
179.9999999999945
  0
ARC
  5
7C
330
1F
100
AcDbEntity
  8
0
  6
Continuous
 62
     7
370
    25
100
AcDbCircle
 10
4966.184506526822
 20
3051.663204263033
 30
0.0
 40
4.704999999999927
100
AcDbArc
 50
180.0
 51
218.0512120751464
  0
LINE
  5
7D
330
1F
100
AcDbEntity
  8
0
  6
Continuous
 62
     7
370
    25
100
AcDbLine
 10
4967.479506526822
 20
3064.563204263033
 30
0.0
 11
4962.479506526822
 21
3064.563204263033
 31
0.0
  0
LINE
  5
7E
330
1F
100
AcDbEntity
  8
0
  6
Continuous
 62
     7
370
    25
100
AcDbLine
 10
4962.479506526822
 20
3048.763204263034
 30
0.0
 11
4967.479506526822
 21
3048.763204263034
 31
0.0
  0
LINE
  5
7F
330
1F
100
AcDbEntity
  8
0
  6
Continuous
 62
     7
370
    25
100
AcDbLine
 10
4985.593822634748
 20
3060.663204263033
 30
0.0
 11
4984.225153919211
 21
3060.663204263033
 31
0.0
  0
LINE
  5
80
330
1F
100
AcDbEntity
  8
0
  6
Continuous
 62
     7
370
    25
100
AcDbLine
 10
4984.225153919211
 20
3052.663204263034
 30
0.0
 11
4985.593822634748
 21
3052.663204263034
 31
0.0
  0
LINE
  5
81
330
1F
100
AcDbEntity
  8
0
  6
Continuous
 62
     7
370
    25
100
AcDbLine
 10
3608.872562965648
 20
3012.343243273715
 30
0.0
 11
3608.188228607879
 21
3011.157941396695
 31
0.0
  0
LINE
  5
82
330
1F
100
AcDbEntity
  8
0
  6
Continuous
 62
     7
370
    25
100
AcDbLine
 10
3615.116431838155
 20
3007.157941396695
 30
0.0
 11
3615.800766195924
 21
3008.343243273714
 31
0.0
  0
LINE
  5
83
330
1F
100
AcDbEntity
  8
0
  6
Continuous
 62
     7
370
    25
100
AcDbLine
 10
3627.047128919541
 20
2986.822514911369
 30
0.0
 11
3627.297128919541
 21
2987.25552761326
 31
0.0
  0
LINE
  5
84
330
1F
100
AcDbEntity
  8
0
  6
Continuous
 62
     7
370
    25
100
AcDbLine
 10
3623.833027304403
 20
2989.25552761326
 30
0.0
 11
3623.583027304404
 21
2988.822514911368
 31
0.0
  0
LINE
  5
85
330
1F
100
AcDbEntity
  8
0
  6
Continuous
 62
     7
370
    25
100
AcDbLine
 10
3624.232546357241
 20
2988.447514911369
 30
0.0
 11
3623.982546357241
 21
2988.014502209476
 31
0.0
  0
LINE
  5
86
330
1F
100
AcDbEntity
  8
0
  6
Continuous
 62
     7
370
    25
100
AcDbLine
 10
3626.147609866702
 20
2986.764502209476
 30
0.0
 11
3626.397609866702
 21
2987.197514911369
 31
0.0
  0
LINE
  5
87
330
1F
100
AcDbEntity
  8
0
  6
Continuous
 62
     7
370
    25
100
AcDbLine
 10
3588.075985749242
 20
3009.322514911368
 30
0.0
 11
3588.325985749241
 21
3009.75552761326
 31
0.0
  0
LINE
  5
88
330
1F
100
AcDbEntity
  8
0
  6
Continuous
 62
     7
370
    25
100
AcDbLine
 10
3584.861884134104
 20
3011.755527613261
 30
0.0
 11
3584.611884134104
 21
3011.322514911368
 31
0.0
  0
LINE
  5
89
330
1F
100
AcDbEntity
  8
0
  6
Continuous
 62
     7
370
    25
100
AcDbLine
 10
3585.261403186942
 20
3010.947514911369
 30
0.0
 11
3585.011403186941
 21
3010.514502209476
 31
0.0
  0
LINE
  5
8A
330
1F
100
AcDbEntity
  8
0
  6
Continuous
 62
     7
370
    25
100
AcDbLine
 10
3587.176466696403
 20
3009.264502209476
 30
0.0
 11
3587.426466696403
 21
3009.697514911369
 31
0.0
  0
ARC
  5
8B
330
1F
100
AcDbEntity
  8
0
  6
Continuous
 62
     7
370
    25
100
AcDbCircle
 10
3640.210639550244
 20
3111.4470274268
 30
0.0
 40
4.999999999999888
100
AcDbArc
 50
13.15111074270202
 51
68.05147854731092
  0
ARC
  5
8C
330
1F
100
AcDbEntity
  8
0
  6
Continuous
 62
     7
370
    25
100
AcDbCircle
 10
3637.948373503401
 20
3111.4470274268
 30
0.0
 40
5.000000000000591
100
AcDbArc
 50
111.9485214526939
 51
166.8488892573003
  0
LINE
  5
8D
330
1F
100
AcDbEntity
  8
0
  6
Continuous
 62
     7
370
    25
100
AcDbLine
 10
3645.079506526822
 20
3111.584627692438
 30
0.0
 11
3645.079506526822
 21
3112.584627692438
 31
0.0
  0
LINE
  5
8E
330
1F
100
AcDbEntity
  8
0
  6
Continuous
 62
     7
370
    25
100
AcDbLine
 10
3633.079506526822
 20
3112.584627692438
 30
0.0
 11
3633.079506526822
 21
3111.584627692438
 31
0.0
  0
LINE
  5
8F
330
1F
100
AcDbEntity
  8
0
  6
Continuous
 62
     7
370
    25
100
AcDbLine
 10
3637.079506526822
 20
3111.584627692438
 30
0.0
 11
3637.079506526822
 21
3110.945195330078
 31
0.0
  0
LINE
  5
90
330
1F
100
AcDbEntity
  8
0
  6
Continuous
 62
     7
370
    25
100
AcDbLine
 10
3641.079506526823
 20
3110.945194933436
 30
0.0
 11
3641.079506526823
 21
3111.584627692438
 31
0.0
  0
ARC
  5
91
330
1F
100
AcDbEntity
  8
0
  6
Continuous
 62
     7
370
    25
100
AcDbCircle
 10
5040.210639550243
 20
3111.4470274268
 30
0.0
 40
5.000000000000252
100
AcDbArc
 50
13.15111074270591
 51
68.05147854730609
  0
ARC
  5
92
330
1F
100
AcDbEntity
  8
0
  6
Continuous
 62
     7
370
    25
100
AcDbCircle
 10
5037.9483735034
 20
3111.4470274268
 30
0.0
 40
5.000000000000057
100
AcDbArc
 50
111.9485214526939
 51
166.8488892572917
  0
LINE
  5
93
330
1F
100
AcDbEntity
  8
0
  6
Continuous
 62
     7
370
    25
100
AcDbLine
 10
5045.079506526822
 20
3111.584627692438
 30
0.0
 11
5045.079506526822
 21
3112.584627692438
 31
0.0
  0
LINE
  5
94
330
1F
100
AcDbEntity
  8
0
  6
Continuous
 62
     7
370
    25
100
AcDbLine
 10
5033.079506526822
 20
3112.584627692438
 30
0.0
 11
5033.079506526822
 21
3111.584627692438
 31
0.0
  0
LINE
  5
95
330
1F
100
AcDbEntity
  8
0
  6
Continuous
 62
     7
370
    25
100
AcDbLine
 10
5037.079506526821
 20
3111.584627692438
 30
0.0
 11
5037.079506526821
 21
3110.945195330078
 31
0.0
  0
LINE
  5
96
330
1F
100
AcDbEntity
  8
0
  6
Continuous
 62
     7
370
    25
100
AcDbLine
 10
5041.079506526823
 20
3110.945194933437
 30
0.0
 11
5041.079506526823
 21
3111.584627692438
 31
0.0
  0
LINE
  5
97
330
1F
100
AcDbEntity
  8
0
  6
Continuous
 62
     7
370
    25
100
AcDbLine
 10
5035.837275645312
 20
3053.592783294671
 30
0.0
 11
5035.822311502783
 21
3053.578612120971
 31
0.0
  0
LINE
  5
98
330
1F
100
AcDbEntity
  8
0
  6
Continuous
 62
     7
370
    25
100
AcDbLine
 10
5034.323106231612
 20
3045.830042351929
 30
0.0
 11
5034.345089345373
 21
3045.88011102065
 31
0.0
  0
LINE
  5
99
330
1F
100
AcDbEntity
  8
0
  6
Continuous
 62
     7
370
    25
100
AcDbLine
 10
5050.665453387892
 20
3048.292060385003
 30
0.0
 11
5050.612225454379
 21
3048.330518932682
 31
0.0
  0
LINE
  5
9A
330
1F
100
AcDbEntity
  8
0
  6
Continuous
 62
     7
370
    25
100
AcDbLine
 10
5040.212717077378
 20
3042.479723546143
 30
0.0
 11
5040.217947279919
 21
3042.414261327449
 31
0.0
  0
LINE
  5
9B
330
1F
100
AcDbEntity
  8
0
  6
Continuous
 62
     7
370
    25
100
AcDbLine
 10
5037.302329805333
 20
3068.506024312382
 30
0.0
 11
5037.310494476336
 21
3068.451616257025
 31
0.0
  0
LINE
  5
9C
330
1F
100
AcDbEntity
  8
0
  6
Continuous
 62
     7
370
    25
100
AcDbLine
 10
5036.179133114824
 20
3073.843406556473
 30
0.0
 11
5036.165666067813
 21
3073.923177868325
 31
0.0
  0
LINE
  5
9D
330
1F
100
AcDbEntity
  8
0
  6
Continuous
 62
     7
370
    25
100
AcDbLine
 10
5049.548170265262
 20
3071.139936279627
 30
0.0
 11
5049.500075332314
 21
3071.073427556733
 31
0.0
  0
LINE
  5
9E
330
1F
100
AcDbEntity
  8
0
  6
Continuous
 62
     7
370
    25
100
AcDbLine
 10
3635.837275645312
 20
3053.592783294671
 30
0.0
 11
3635.822311502783
 21
3053.578612120971
 31
0.0
  0
LINE
  5
9F
330
1F
100
AcDbEntity
  8
0
  6
Continuous
 62
     7
370
    25
100
AcDbLine
 10
3634.323106231612
 20
3045.830042351928
 30
0.0
 11
3634.345089345373
 21
3045.88011102065
 31
0.0
  0
LINE
  5
A0
330
1F
100
AcDbEntity
  8
0
  6
Continuous
 62
     7
370
    25
100
AcDbLine
 10
3650.665453387892
 20
3048.292060385002
 30
0.0
 11
3650.61222545438
 21
3048.330518932682
 31
0.0
  0
LINE
  5
A1
330
1F
100
AcDbEntity
  8
0
  6
Continuous
 62
     7
370
    25
100
AcDbLine
 10
3640.212717077378
 20
3042.479723546143
 30
0.0
 11
3640.21794727992
 21
3042.414261327449
 31
0.0
  0
LINE
  5
A2
330
1F
100
AcDbEntity
  8
0
  6
Continuous
 62
     7
370
    25
100
AcDbLine
 10
3637.302329805333
 20
3068.506024312382
 30
0.0
 11
3637.310494476337
 21
3068.451616257025
 31
0.0
  0
LINE
  5
A3
330
1F
100
AcDbEntity
  8
0
  6
Continuous
 62
     7
370
    25
100
AcDbLine
 10
3636.179133114825
 20
3073.843406556473
 30
0.0
 11
3636.165666067813
 21
3073.923177868325
 31
0.0
  0
LINE
  5
A4
330
1F
100
AcDbEntity
  8
0
  6
Continuous
 62
     7
370
    25
100
AcDbLine
 10
3649.548170265263
 20
3071.139936279627
 30
0.0
 11
3649.500075332315
 21
3071.073427556733
 31
0.0
  0
CIRCLE
  5
A5
330
1F
100
AcDbEntity
  8
0
  6
Continuous
 62
     7
370
    25
100
AcDbCircle
 10
3639.07950652682
 20
3056.663204263033
 30
0.0
 40
53.63504806936089
  0
CIRCLE
  5
A6
330
1F
100
AcDbEntity
  8
0
  6
Continuous
 62
     7
370
    25
100
AcDbCircle
 10
5039.079506526821
 20
3056.663204263035
 30
0.0
 40
53.63504806936089
  0
LINE
  5
A7
330
1F
100
AcDbEntity
  8
0
  6
Continuous
 62
     7
370
    25
100
AcDbLine
 10
2084.079506526823
 20
3111.663204263033
 30
0.0
 11
2084.079506526823
 21
3001.663204263033
 31
0.0
  0
ARC
  5
A8
330
1F
100
AcDbEntity
  8
0
  6
Continuous
 62
     7
370
    25
100
AcDbCircle
 10
5094.079506526822
 20
3111.663204263033
 30
0.0
 40
1500.0
100
AcDbArc
 50
0.0
 51
90.0
  0
LINE
  5
A9
330
1F
100
AcDbEntity
  8
0
  6
Continuous
 62
     7
370
    25
100
AcDbLine
 10
6594.079506526822
 20
3001.663204263033
 30
0.0
 11
6594.079506526822
 21
3111.663204263033
 31
0.0
  0
LINE
  5
AA
330
1F
100
AcDbEntity
  8
0
  6
Continuous
 62
     7
370
    25
100
AcDbLine
 10
5094.079506526822
 20
4611.663204263034
 30
0.0
 11
3584.079506526823
 21
4611.663204263034
 31
0.0
  0
ARC
  5
AB
330
1F
100
AcDbEntity
  8
0
  6
Continuous
 62
     7
370
    25
100
AcDbCircle
 10
5094.079506526822
 20
3001.663204263033
 30
0.0
 40
1500.0
100
AcDbArc
 50
270.0000000000008
 51
0.0
  0
ARC
  5
AC
330
1F
100
AcDbEntity
  8
0
  6
Continuous
 62
     7
370
    25
100
AcDbCircle
 10
3584.079506526823
 20
3111.663204263033
 30
0.0
 40
1500.0
100
AcDbArc
 50
90.0
 51
180.0
  0
ARC
  5
AD
330
1F
100
AcDbEntity
  8
0
  6
Continuous
 62
     7
370
    25
100
AcDbCircle
 10
3584.079506526823
 20
3001.663204263033
 30
0.0
 40
1500.0
100
AcDbArc
 50
180.0
 51
270.0000000000008
  0
LINE
  5
AE
330
1F
100
AcDbEntity
  8
0
  6
Continuous
 62
     7
370
    25
100
AcDbLine
 10
3584.079506526823
 20
1501.663204263033
 30
0.0
 11
5094.079506526822
 21
1501.663204263033
 31
0.0
  0
ARC
  5
AF
330
1F
100
AcDbEntity
  8
0
  6
Continuous
 62
     7
370
    25
100
AcDbCircle
 10
3639.079506526821
 20
3056.663204263033
 30
0.0
 40
150.0000000000003
100
AcDbArc
 50
270.0000000000008
 51
353.5501604368913
  0
ARC
  5
B0
330
1F
100
AcDbEntity
  8
0
  6
Continuous
 62
     7
370
    25
100
AcDbCircle
 10
3639.079506526821
 20
3056.663204263033
 30
0.0
 40
150.0000000000003
100
AcDbArc
 50
6.449839563109698
 51
270.0000000000008
  0
ARC
  5
B1
330
1F
100
AcDbEntity
  8
0
  6
Continuous
 62
     7
370
    25
100
AcDbCircle
 10
5039.079506526822
 20
3056.663204263033
 30
0.0
 40
150.0000000000003
100
AcDbArc
 50
270.0000000000008
 51
173.5501604368903
  0
ARC
  5
B2
330
1F
100
AcDbEntity
  8
0
  6
Continuous
 62
     7
370
    25
100
AcDbCircle
 10
5039.079506526822
 20
3056.663204263033
 30
0.0
 40
150.0000000000003
100
AcDbArc
 50
186.4498395631103
 51
270.0000000000008
  0
LINE
  5
B3
330
1F
100
AcDbEntity
  8
0
  6
Continuous
 62
     7
370
    25
100
AcDbLine
 10
4969.079506526822
 20
3031.663204263033
 30
0.0
 11
4974.079506526822
 21
3031.663204263033
 31
0.0
  0
LINE
  5
B4
330
1F
100
AcDbEntity
  8
0
  6
Continuous
 62
     7
370
    25
100
AcDbLine
 10
4974.079506526822
 20
3081.663204263033
 30
0.0
 11
4969.079506526822
 21
3081.663204263033
 31
0.0
  0
LINE
  5
B5
330
1F
100
AcDbEntity
  8
0
  6
Continuous
 62
     7
370
    25
100
AcDbLine
 10
4974.079506526822
 20
3081.663204263033
 30
0.0
 11
4974.079506526822
 21
3067.589500691562
 31
0.0
  0
LINE
  5
B6
330
1F
100
AcDbEntity
  8
0
  6
Continuous
 62
     7
370
    25
100
AcDbLine
 10
4974.079506526822
 20
3057.163204296311
 30
0.0
 11
4974.079506526822
 21
3056.163204296396
 31
0.0
  0
LINE
  5
B7
330
1F
100
AcDbEntity
  8
0
  6
Continuous
 62
     7
370
    25
100
AcDbLine
 10
4974.079506526822
 20
3045.736907834505
 30
0.0
 11
4974.079506526822
 21
3031.663204263033
 31
0.0
  0
LINE
  5
B8
330
1F
100
AcDbEntity
  8
0
  6
Continuous
 62
     7
370
    25
100
AcDbLine
 10
4969.079506526822
 20
3081.663204263033
 30
0.0
 11
4969.079506526822
 21
3031.663204263033
 31
0.0
  0
LINE
  5
B9
330
1F
100
AcDbEntity
  8
0
  6
Continuous
 62
     7
370
    25
100
AcDbLine
 10
4974.079506526822
 20
3026.663204263033
 30
0.0
 11
4969.079506526822
 21
3026.663204263033
 31
0.0
  0
LINE
  5
BA
330
1F
100
AcDbEntity
  8
0
  6
Continuous
 62
     7
370
    25
100
AcDbLine
 10
4974.079506526822
 20
3031.663204263033
 30
0.0
 11
4974.079506526822
 21
3026.663204263033
 31
0.0
  0
LINE
  5
BB
330
1F
100
AcDbEntity
  8
0
  6
Continuous
 62
     7
370
    25
100
AcDbLine
 10
4969.079506526822
 20
3026.663204263033
 30
0.0
 11
4969.079506526822
 21
3031.663204263033
 31
0.0
  0
LINE
  5
BC
330
1F
100
AcDbEntity
  8
0
  6
Continuous
 62
     7
370
    25
100
AcDbLine
 10
4969.079506526822
 20
3086.663204263033
 30
0.0
 11
4974.079506526822
 21
3086.663204263033
 31
0.0
  0
LINE
  5
BD
330
1F
100
AcDbEntity
  8
0
  6
Continuous
 62
     7
370
    25
100
AcDbLine
 10
4974.079506526822
 20
3086.663204263033
 30
0.0
 11
4974.079506526822
 21
3081.663204263033
 31
0.0
  0
LINE
  5
BE
330
1F
100
AcDbEntity
  8
0
  6
Continuous
 62
     7
370
    25
100
AcDbLine
 10
4969.079506526822
 20
3081.663204263033
 30
0.0
 11
4969.079506526822
 21
3086.663204263033
 31
0.0
  0
LINE
  5
BF
330
1F
100
AcDbEntity
  8
0
  6
Continuous
 62
     7
370
    25
100
AcDbLine
 10
3709.079506526822
 20
3031.663204263033
 30
0.0
 11
3704.079506526822
 21
3031.663204263033
 31
0.0
  0
LINE
  5
C0
330
1F
100
AcDbEntity
  8
0
  6
Continuous
 62
     7
370
    25
100
AcDbLine
 10
3709.079506526822
 20
3026.663204263033
 30
0.0
 11
3709.079506526822
 21
3031.663204263033
 31
0.0
  0
LINE
  5
C1
330
1F
100
AcDbEntity
  8
0
  6
Continuous
 62
     7
370
    25
100
AcDbLine
 10
3704.079506526822
 20
3026.663204263033
 30
0.0
 11
3709.079506526822
 21
3026.663204263033
 31
0.0
  0
LINE
  5
C2
330
1F
100
AcDbEntity
  8
0
  6
Continuous
 62
     7
370
    25
100
AcDbLine
 10
3704.079506526822
 20
3031.663204263033
 30
0.0
 11
3704.079506526822
 21
3026.663204263033
 31
0.0
  0
LINE
  5
C3
330
1F
100
AcDbEntity
  8
0
  6
Continuous
 62
     7
370
    25
100
AcDbLine
 10
3704.079506526822
 20
3081.663204263033
 30
0.0
 11
3709.079506526822
 21
3081.663204263033
 31
0.0
  0
LINE
  5
C4
330
1F
100
AcDbEntity
  8
0
  6
Continuous
 62
     7
370
    25
100
AcDbLine
 10
3709.079506526822
 20
3081.663204263033
 30
0.0
 11
3709.079506526822
 21
3031.663204263033
 31
0.0
  0
LINE
  5
C5
330
1F
100
AcDbEntity
  8
0
  6
Continuous
 62
     7
370
    25
100
AcDbLine
 10
3704.079506526822
 20
3081.663204263033
 30
0.0
 11
3704.079506526822
 21
3067.589500691559
 31
0.0
  0
LINE
  5
C6
330
1F
100
AcDbEntity
  8
0
  6
Continuous
 62
     7
370
    25
100
AcDbLine
 10
3704.079506526822
 20
3057.163204229672
 30
0.0
 11
3704.079506526822
 21
3056.163204229756
 31
0.0
  0
LINE
  5
C7
330
1F
100
AcDbEntity
  8
0
  6
Continuous
 62
     7
370
    25
100
AcDbLine
 10
3704.079506526822
 20
3045.736907834508
 30
0.0
 11
3704.079506526822
 21
3031.663204263033
 31
0.0
  0
LINE
  5
C8
330
1F
100
AcDbEntity
  8
0
  6
Continuous
 62
     7
370
    25
100
AcDbLine
 10
3709.079506526822
 20
3086.663204263033
 30
0.0
 11
3704.079506526822
 21
3086.663204263033
 31
0.0
  0
LINE
  5
C9
330
1F
100
AcDbEntity
  8
0
  6
Continuous
 62
     7
370
    25
100
AcDbLine
 10
3709.079506526822
 20
3081.663204263033
 30
0.0
 11
3709.079506526822
 21
3086.663204263033
 31
0.0
  0
LINE
  5
CA
330
1F
100
AcDbEntity
  8
0
  6
Continuous
 62
     7
370
    25
100
AcDbLine
 10
3704.079506526822
 20
3086.663204263033
 30
0.0
 11
3704.079506526822
 21
3081.663204263033
 31
0.0
  0
LINE
  5
CB
330
1F
100
AcDbEntity
  8
0
  6
Continuous
 62
     7
370
    25
100
AcDbLine
 10
4967.479506526822
 20
3048.663204263034
 30
0.0
 11
4967.479506526822
 21
3064.663204263034
 31
0.0
  0
LINE
  5
CC
330
1F
100
AcDbEntity
  8
0
  6
Continuous
 62
     7
370
    25
100
AcDbLine
 10
3710.679506526822
 20
3064.663204263034
 30
0.0
 11
3710.679506526822
 21
3048.663204263034
 31
0.0
  0
LINE
  5
CD
330
1F
100
AcDbEntity
  8
0
  6
Continuous
 62
     7
370
    25
100
AcDbLine
 10
3715.679506526822
 20
3048.763204263034
 30
0.0
 11
3715.679506526822
 21
3064.563204263033
 31
0.0
  0
LINE
  5
CE
330
1F
100
AcDbEntity
  8
0
  6
Continuous
 62
     7
370
    25
100
AcDbLine
 10
3716.679506526822
 20
3051.663204263033
 30
0.0
 11
3716.679506526822
 21
3061.663204263033
 31
0.0
  0
LINE
  5
CF
330
1F
100
AcDbEntity
  8
0
  6
Continuous
 62
     7
370
    25
100
AcDbLine
 10
4961.479506526822
 20
3061.663204263033
 30
0.0
 11
4961.479506526822
 21
3051.663204263033
 31
0.0
  0
LINE
  5
D0
330
1F
100
AcDbEntity
  8
0
  6
Continuous
 62
     7
370
    25
100
AcDbLine
 10
4962.479506526822
 20
3064.563204263033
 30
0.0
 11
4962.479506526822
 21
3048.763204263034
 31
0.0
  0
LINE
  5
D1
330
1F
100
AcDbEntity
  8
0
  6
Continuous
 62
     7
370
    25
100
AcDbLine
 10
3699.579506526822
 20
3091.592895549006
 30
0.0
 11
3692.696820146706
 21
3087.619174714699
 31
0.0
  0
SPLINE
  5
D2
330
1F
100
AcDbEntity
  8
0
  6
Continuous
 62
     7
370
    25
100
AcDbSpline
210
0.0
220
0.0
230
1.0
 70
     8
 71
     3
 72
    14
 73
    10
 74
     0
 42
0.00000001
 43
0.0000000001
 40
0.0
 40
0.0
 40
0.0
 40
0.0
 40
0.1081993132956942
 40
0.2169299671281998
 40
0.3180442696460241
 40
0.4207399372445234
 40
0.5723650247537126
 40
0.7800438867915221
 40
0.9999999999999998
 40
0.9999999999999998
 40
0.9999999999999998
 40
0.9999999999999998
 10
3704.079506526822
 20
3088.994819337653
 30
0.0
 10
3704.062409630689
 20
3089.243330323143
 30
0.0
 10
3704.028131879719
 20
3089.74157267119
 30
0.0
 10
3703.723273903396
 20
3090.480773943169
 30
0.0
 10
3703.263396715703
 20
3091.094981434657
 30
0.0
 10
3702.623231804389
 20
3091.614779611314
 30
0.0
 10
3701.722355459365
 20
3091.988939736905
 30
0.0
 10
3700.613209552278
 20
3092.049531618564
 30
0.0
 10
3699.930606632653
 20
3091.747993259276
 30
0.0
 10
3699.579506526822
 20
3091.592895549006
 30
0.0
  0
SPLINE
  5
D3
330
1F
100
AcDbEntity
  8
0
  6
Continuous
 62
     7
370
    25
100
AcDbSpline
210
0.0
220
0.0
230
1.0
 70
    24
 71
     3
 72
     9
 73
     5
 74
     0
 42
0.00000001
 43
0.0000000001
 40
0.0
 40
0.0
 40
0.0
 40
0.0
 40
0.5447113614641907
 40
1.0
 40
1.0
 40
1.0
 40
1.0
 10
3704.079506526822
 20
3057.163204229671
 30
0.0
 10
3704.079506526822
 20
3059.06650796308
 30
0.0
 10
3704.079506526822
 20
3062.56065893561
 30
0.0
 10
3704.079506526822
 20
3066.013194848237
 30
0.0
 10
3704.079506526822
 20
3067.585095223392
 30
0.0
  0
LINE
  5
D4
330
1F
100
AcDbEntity
  8
0
  6
Continuous
 62
     7
370
    25
100
AcDbLine
 10
3704.079506526822
 20
3086.915905512656
 30
0.0
 11
3704.079506526822
 21
3088.994819337653
 31
0.0
  0
LINE
  5
D5
330
1F
100
AcDbEntity
  8
0
  6
Continuous
 62
     7
370
    25
100
AcDbLine
 10
3703.579506526864
 20
3056.663204263033
 30
0.0
 11
3704.079506526822
 21
3057.163204229671
 31
0.0
  0
LINE
  5
D6
330
1F
100
AcDbEntity
  8
0
  6
Continuous
 62
     7
370
    25
100
AcDbLine
 10
3704.079506526822
 20
3056.163204229756
 30
0.0
 11
3703.579506526864
 21
3056.663204263033
 31
0.0
  0
LINE
  5
D7
330
1F
100
AcDbEntity
  8
0
  6
Continuous
 62
     7
370
    25
100
AcDbLine
 10
3704.079506526822
 20
3024.331589188449
 30
0.0
 11
3704.079506526822
 21
3026.410503013412
 31
0.0
  0
SPLINE
  5
D8
330
1F
100
AcDbEntity
  8
0
  6
Continuous
 62
     7
370
    25
100
AcDbSpline
210
0.0
220
0.0
230
1.0
 70
    24
 71
     3
 72
    10
 73
     6
 74
     0
 42
0.00000001
 43
0.0000000001
 40
0.0
 40
0.0
 40
0.0
 40
0.0
 40
0.0452849409776497
 40
0.5226593277903168
 40
1.0
 40
1.0
 40
1.0
 40
1.0
 10
3704.079506526822
 20
3045.739694947638
 30
0.0
 10
3704.079506526822
 20
3045.894830306354
 30
0.0
 10
3704.079506526821
 20
3047.685335948033
 30
0.0
 10
3704.079506526822
 20
3051.167006202033
 30
0.0
 10
3704.079506526822
 20
3054.497844095346
 30
0.0
 10
3704.079506526822
 20
3056.163204229756
 30
0.0
  0
SPLINE
  5
D9
330
1F
100
AcDbEntity
  8
0
  6
Continuous
 62
     7
370
    25
100
AcDbSpline
210
0.0
220
0.0
230
1.0
 70
     8
 71
     3
 72
    14
 73
    10
 74
     0
 42
0.00000001
 43
0.0000000001
 40
0.0
 40
0.0
 40
0.0
 40
0.0
 40
0.2660290138730406
 40
0.4554925880838129
 40
0.596626908930228
 40
0.7093734207374394
 40
0.8226985097351056
 40
0.923438306100866
 40
1.0
 40
1.0
 40
1.0
 40
1.0
 10
3699.579506526792
 20
3021.733512977079
 30
0.0
 10
3700.009850879502
 20
3021.553212310159
 30
0.0
 10
3700.746682776629
 20
3021.244503059944
 30
0.0
 10
3701.902908529429
 20
3021.390043054951
 30
0.0
 10
3702.7614069557
 20
3021.79751352415
 30
0.0
 10
3703.406561964401
 20
3022.378252700033
 30
0.0
 10
3703.838754513826
 20
3023.069693442623
 30
0.0
 10
3704.050902799172
 20
3023.754368881104
 30
0.0
 10
3704.070880030436
 20
3024.157507370997
 30
0.0
 10
3704.079506526822
 20
3024.331589188449
 30
0.0
  0
LINE
  5
DA
330
1F
100
AcDbEntity
  8
0
  6
Continuous
 62
     7
370
    25
100
AcDbLine
 10
3692.696820146706
 20
3025.707233811369
 30
0.0
 11
3699.579506526792
 21
3021.733512977079
 31
0.0
  0
SPLINE
  5
DB
330
1F
100
AcDbEntity
  8
0
  6
Continuous
 62
     7
370
    25
100
AcDbSpline
210
0.0
220
0.0
230
1.0
 70
     8
 71
     3
 72
    12
 73
     8
 74
     0
 42
0.00000001
 43
0.0000000001
 40
0.0
 40
0.0
 40
0.0
 40
0.0
 40
0.1226556547367616
 40
0.2515518508855774
 40
0.4402222833467014
 40
0.7004170735758212
 40
1.0
 40
1.0
 40
1.0
 40
1.0
 10
3692.323685432726
 20
3027.077363777308
 30
0.0
 10
3692.290402469539
 20
3027.006436391526
 30
0.0
 10
3692.222143154381
 20
3026.860972937678
 30
0.0
 10
3692.183130580389
 20
3026.594636837509
 30
0.0
 10
3692.22009117272
 20
3026.277309519399
 30
0.0
 10
3692.383569442639
 20
3025.938981742493
 30
0.0
 10
3692.587617376734
 20
3025.788023784657
 30
0.0
 10
3692.696820146706
 20
3025.707233811369
 30
0.0
  0
ARC
  5
DC
330
1F
100
AcDbEntity
  8
0
  6
Continuous
 62
     7
370
    25
100
AcDbCircle
 10
3639.079506526821
 20
3056.663204263033
 30
0.0
 40
60.91194090332962
100
AcDbArc
 50
330.9406752227309
 51
29.0593247772707
  0
SPLINE
  5
DD
330
1F
100
AcDbEntity
  8
0
  6
Continuous
 62
     7
370
    25
100
AcDbSpline
210
0.0
220
0.0
230
1.0
 70
     8
 71
     3
 72
    13
 73
     9
 74
     0
 42
0.00000001
 43
0.0000000001
 40
0.0
 40
0.0
 40
0.0
 40
0.0
 40
0.2074964269245136
 40
0.4900206215364129
 40
0.6901745899068513
 40
0.845144594138922
 40
0.9766016119908565
 40
1.0
 40
1.0
 40
1.0
 40
1.0
 10
3692.696820146706
 20
3087.619174714699
 30
0.0
 10
3692.619858473273
 20
3087.565922647556
 30
0.0
 10
3692.438106875864
 20
3087.440163320391
 30
0.0
 10
3692.258302062966
 20
3087.156812629428
 30
0.0
 10
3692.182986004496
 20
3086.824755976522
 30
0.0
 10
3692.205178768823
 20
3086.536150344949
 30
0.0
 10
3692.270064951421
 20
3086.348762570271
 30
0.0
 10
3692.316646969199
 20
3086.26213415476
 30
0.0
 10
3692.323685432726
 20
3086.249044748759
 30
0.0
  0
LINE
  5
DE
330
1F
100
AcDbEntity
  8
0
  6
Continuous
 62
     7
370
    25
100
AcDbLine
 10
3692.323685432726
 20
3086.249044748759
 30
0.0
 11
3688.069196152556
 21
3083.792714217588
 31
0.0
  0
SPLINE
  5
DF
330
1F
100
AcDbEntity
  8
0
  6
Continuous
 62
     7
370
    25
100
AcDbSpline
210
0.0
220
0.0
230
1.0
 70
     8
 71
     3
 72
    16
 73
    12
 74
     0
 42
0.00000001
 43
0.0000000001
 40
0.0
 40
0.0
 40
0.0
 40
0.0
 40
0.0036530423090756
 40
0.0124065103979173
 40
0.0324246526108839
 40
0.0852299381197498
 40
0.235790296909488
 40
0.499698330211794
 40
0.6992538435410819
 40
0.8471293154620383
 40
1.0
 40
1.0
 40
1.0
 40
1.0
 10
3688.069196152556
 20
3083.792714217588
 30
0.0
 10
3688.067285807174
 20
3083.793624860646
 30
0.0
 10
3688.060797867028
 20
3083.796717598591
 30
0.0
 10
3688.043841468112
 20
3083.804799323115
 30
0.0
 10
3688.001189417875
 20
3083.825122033467
 30
0.0
 10
3687.884544723778
 20
3083.880657380484
 30
0.0
 10
3687.643420511466
 20
3083.995211757807
 30
0.0
 10
3687.345896075927
 20
3084.135921409778
 30
0.0
 10
3687.117875656988
 20
3084.243316658766
 30
0.0
 10
3686.992842690671
 20
3084.302076924148
 30
0.0
 10
3686.977702472603
 20
3084.309184549212
 30
0.0
 10
3686.970006628616
 20
3084.312797388431
 30
0.0
  0
LINE
  5
E0
330
1F
100
AcDbEntity
  8
0
  6
Continuous
 62
     7
370
    25
100
AcDbLine
 10
3686.970006628616
 20
3084.312797388431
 30
0.0
 11
3692.696820146706
 21
3087.619174714699
 31
0.0
  0
LINE
  5
E1
330
1F
100
AcDbEntity
  8
0
  6
Continuous
 62
     7
370
    25
100
AcDbLine
 10
3692.696820146706
 20
3025.707233811369
 30
0.0
 11
3686.970006628634
 21
3029.013611137626
 31
0.0
  0
SPLINE
  5
E2
330
1F
100
AcDbEntity
  8
0
  6
Continuous
 62
     7
370
    25
100
AcDbSpline
210
0.0
220
0.0
230
1.0
 70
     8
 71
     3
 72
    16
 73
    12
 74
     0
 42
0.00000001
 43
0.0000000001
 40
0.0
 40
0.0
 40
0.0
 40
0.0
 40
0.1528706845390106
 40
0.3007461564602244
 40
0.5003016697896409
 40
0.7642097030913641
 40
0.9147700618767393
 40
0.967575347386373
 40
0.987593489600448
 40
0.9963469576909236
 40
1.0
 40
1.0
 40
1.0
 40
1.0
 10
3686.970006628634
 20
3029.013611137626
 30
0.0
 10
3686.977702472621
 20
3029.017223976845
 30
0.0
 10
3686.992842690687
 20
3029.024331601908
 30
0.0
 10
3687.117875657003
 20
3029.083091867292
 30
0.0
 10
3687.345896075938
 20
3029.190487116281
 30
0.0
 10
3687.643420511469
 20
3029.331196768256
 30
0.0
 10
3687.884544723778
 20
3029.445751145579
 30
0.0
 10
3688.001189417871
 20
3029.501286492598
 30
0.0
 10
3688.04384146811
 20
3029.521609202951
 30
0.0
 10
3688.060797867026
 20
3029.529690927475
 30
0.0
 10
3688.067285807174
 20
3029.532783665422
 30
0.0
 10
3688.069196152556
 20
3029.533694308479
 30
0.0
  0
LINE
  5
E3
330
1F
100
AcDbEntity
  8
0
  6
Continuous
 62
     7
370
    25
100
AcDbLine
 10
3688.069196152556
 20
3029.533694308479
 30
0.0
 11
3692.323685432726
 21
3027.077363777308
 31
0.0
  0
SPLINE
  5
E4
330
1F
100
AcDbEntity
  8
0
  6
Continuous
 62
     7
370
    25
100
AcDbSpline
210
0.0
220
0.0
230
1.0
 70
     8
 71
     3
 72
    16
 73
    12
 74
     0
 42
0.00000001
 43
0.0000000001
 40
0.0
 40
0.0
 40
0.0
 40
0.0
 40
0.0036546657631585
 40
0.0122997072660184
 40
0.0321705767509454
 40
0.0847325013563692
 40
0.2358261220646825
 40
0.4996639652923093
 40
0.6991759891142162
 40
0.8470687271786841
 40
1.0
 40
1.0
 40
1.0
 40
1.0
 10
3688.069196152556
 20
3083.792714217588
 30
0.0
 10
3688.0670897216
 20
3083.792918348111
 30
0.0
 10
3688.060000568774
 20
3083.793605345454
 30
0.0
 10
3688.041458797635
 20
3083.795400470029
 30
0.0
 10
3687.994739655052
 20
3083.799915109557
 30
0.0
 10
3687.86611408836
 20
3083.812283284176
 30
0.0
 10
3687.60031869802
 20
3083.837488022278
 30
0.0
 10
3687.272539231409
 20
3083.867654750793
 30
0.0
 10
3687.021829569877
 20
3083.89009543323
 30
0.0
 10
3686.884466208409
 20
3083.902206797018
 30
0.0
 10
3686.86784094717
 20
3083.903661755367
 30
0.0
 10
3686.859389087377
 20
3083.904401419171
 30
0.0
  0
ARC
  5
E5
330
1F
100
AcDbEntity
  8
0
  6
Continuous
 62
     7
370
    25
100
AcDbCircle
 10
3687.120006628616
 20
3084.052989767295
 30
0.0
 40
0.3000000000004081
100
AcDbArc
 50
120.0000000000688
 51
209.6891714617314
  0
ARC
  5
E6
330
1F
100
AcDbEntity
  8
0
  6
Continuous
 62
     7
370
    25
100
AcDbCircle
 10
3639.079506526821
 20
3056.663204263033
 30
0.0
 40
56.0000000000006
100
AcDbArc
 50
0.9408028636820514
 51
28.97680669631425
  0
SPLINE
  5
E7
330
1F
100
AcDbEntity
  8
0
  6
Continuous
 62
     7
370
    25
100
AcDbSpline
210
0.0
220
0.0
230
1.0
 70
     8
 71
     3
 72
    13
 73
     9
 74
     0
 42
0.00000001
 43
0.0000000001
 40
0.0
 40
0.0
 40
0.0
 40
0.0
 40
0.0046611651922782
 40
0.1938548874124243
 40
0.409067370545322
 40
0.6100513477736824
 40
0.8049142503526955
 40
0.9999999999999998
 40
0.9999999999999998
 40
0.9999999999999998
 40
0.9999999999999998
 10
3695.071957338316
 20
3057.582688967839
 30
0.0
 10
3695.069629791477
 20
3057.58170240697
 30
0.0
 10
3694.97282860297
 20
3057.540671969656
 30
0.0
 10
3694.767847639865
 20
3057.453919982004
 30
0.0
 10
3694.487410672548
 20
3057.335601944536
 30
0.0
 10
3694.259681152912
 20
3057.239785126955
 30
0.0
 10
3694.106922763882
 20
3057.17564442029
 30
0.0
 10
3694.087133936182
 20
3057.167344108025
 30
0.0
 10
3694.077233867892
 20
3057.16319158017
 30
0.0
  0
ARC
  5
E8
330
1F
100
AcDbEntity
  8
0
  6
Continuous
 62
     7
370
    25
100
AcDbCircle
 10
3639.079506526821
 20
3056.663204263033
 30
0.0
 40
55.00000000000002
100
AcDbArc
 50
0.520864684830734
 51
29.68917146173359
  0
SPLINE
  5
E9
330
1F
100
AcDbEntity
  8
0
  6
Continuous
 62
     7
370
    25
100
AcDbSpline
210
0.0
220
0.0
230
1.0
 70
     8
 71
     3
 72
    16
 73
    12
 74
     0
 42
0.00000001
 43
0.0000000001
 40
0.0
 40
0.0
 40
0.0
 40
0.0
 40
0.1529312728223595
 40
0.3008240108871052
 40
0.500336034709213
 40
0.7641738779362152
 40
0.9152674986400668
 40
0.9678294232463457
 40
0.9877002927324534
 40
0.9963453342368271
 40
1.0
 40
1.0
 40
1.0
 40
1.0
 10
3686.859389087387
 20
3029.422007106914
 30
0.0
 10
3686.86784094718
 20
3029.422746770717
 30
0.0
 10
3686.884466208419
 20
3029.424201729066
 30
0.0
 10
3687.021829569886
 20
3029.436313092852
 30
0.0
 10
3687.272539231416
 20
3029.458753775286
 30
0.0
 10
3687.600318698022
 20
3029.488920503795
 30
0.0
 10
3687.866114088357
 20
3029.514125241894
 30
0.0
 10
3687.994739655048
 20
3029.52649341651
 30
0.0
 10
3688.041458797633
 20
3029.531008056038
 30
0.0
 10
3688.060000568773
 20
3029.532803180614
 30
0.0
 10
3688.067089721601
 20
3029.533490177957
 30
0.0
 10
3688.069196152556
 20
3029.533694308479
 30
0.0
  0
ARC
  5
EA
330
1F
100
AcDbEntity
  8
0
  6
Continuous
 62
     7
370
    25
100
AcDbCircle
 10
3687.120006628644
 20
3029.273418758779
 30
0.0
 40
0.3000000000207702
100
AcDbArc
 50
150.3108285382871
 51
239.9999999999391
  0
ARC
  5
EB
330
1F
100
AcDbEntity
  8
0
  6
Continuous
 62
     7
370
    25
100
AcDbCircle
 10
3639.079506526821
 20
3056.663204263033
 30
0.0
 40
55.00000000000004
100
AcDbArc
 50
330.3108285382889
 51
359.4791086467582
  0
SPLINE
  5
EC
330
1F
100
AcDbEntity
  8
0
  6
Continuous
 62
     7
370
    25
100
AcDbSpline
210
0.0
220
0.0
230
1.0
 70
     8
 71
     3
 72
    13
 73
     9
 74
     0
 42
0.00000001
 43
0.0000000001
 40
0.0
 40
0.0
 40
0.0
 40
0.0
 40
0.1950870218985182
 40
0.3899512097010213
 40
0.5909361417550706
 40
0.8061487093031226
 40
0.9953387603440258
 40
1.0
 40
1.0
 40
1.0
 40
1.0
 10
3694.077233635166
 20
3056.163191347117
 30
0.0
 10
3694.087133773419
 20
3056.159038934829
 30
0.0
 10
3694.106922741696
 20
3056.15073885326
 30
0.0
 10
3694.259682327459
 20
3056.086599882793
 30
0.0
 10
3694.487413453067
 20
3055.99078573459
 30
0.0
 10
3694.767850239813
 20
3055.872471905732
 30
0.0
 10
3694.972829927429
 20
3055.785723492582
 30
0.0
 10
3695.069629568426
 20
3055.744695148288
 30
0.0
 10
3695.071957158424
 20
3055.74370860368
 30
0.0
  0
ARC
  5
ED
330
1F
100
AcDbEntity
  8
0
  6
Continuous
 62
     7
370
    25
100
AcDbCircle
 10
3639.079506526821
 20
3056.663204263033
 30
0.0
 40
56.00000000000015
100
AcDbArc
 50
331.0231933036873
 51
359.059185926784
  0
LINE
  5
EE
330
1F
100
AcDbEntity
  8
0
  6
Continuous
 62
     7
370
    25
100
AcDbLine
 10
3694.077233635166
 20
3056.163191347117
 30
0.0
 11
3694.577233867891
 21
3056.663204263033
 31
0.0
  0
LINE
  5
EF
330
1F
100
AcDbEntity
  8
0
  6
Continuous
 62
     7
370
    25
100
AcDbLine
 10
3695.991447430151
 20
3056.663222199539
 30
0.0
 11
3694.577233867891
 21
3056.663204263033
 31
0.0
  0
LINE
  5
F0
330
1F
100
AcDbEntity
  8
0
  6
Continuous
 62
     7
370
    25
100
AcDbLine
 10
3695.991447430151
 20
3056.663222199539
 30
0.0
 11
3695.071957158424
 21
3055.74370860368
 31
0.0
  0
LINE
  5
F1
330
1F
100
AcDbEntity
  8
0
  6
Continuous
 62
     7
370
    25
100
AcDbLine
 10
3695.071957338316
 20
3057.582688967839
 30
0.0
 11
3695.991447430151
 21
3056.663222199539
 31
0.0
  0
LINE
  5
F2
330
1F
100
AcDbEntity
  8
0
  6
Continuous
 62
     7
370
    25
100
AcDbLine
 10
3694.577233867891
 20
3056.663204263033
 30
0.0
 11
3694.077233867892
 21
3057.16319158017
 31
0.0
  0
LINE
  5
F3
330
1F
100
AcDbEntity
  8
0
  6
Continuous
 62
     7
370
    25
100
AcDbLine
 10
4985.835327620918
 20
3027.077363777308
 30
0.0
 11
4990.089816901088
 21
3029.533694308479
 31
0.0
  0
SPLINE
  5
F4
330
1F
100
AcDbEntity
  8
0
  6
Continuous
 62
     7
370
    25
100
AcDbSpline
210
0.0
220
0.0
230
1.0
 70
     8
 71
     3
 72
    16
 73
    12
 74
     0
 42
0.00000001
 43
0.0000000001
 40
0.0
 40
0.0
 40
0.0
 40
0.0
 40
0.0036530423090756
 40
0.0124065103979173
 40
0.0324246526108839
 40
0.0852299381197498
 40
0.235790296909488
 40
0.499698330211794
 40
0.6992538435410819
 40
0.8471293154620383
 40
1.0
 40
1.0
 40
1.0
 40
1.0
 10
4990.089816901088
 20
3029.533694308479
 30
0.0
 10
4990.09172724647
 20
3029.532783665422
 30
0.0
 10
4990.098215186616
 20
3029.529690927476
 30
0.0
 10
4990.115171585531
 20
3029.521609202952
 30
0.0
 10
4990.157823635769
 20
3029.5012864926
 30
0.0
 10
4990.274468329867
 20
3029.445751145583
 30
0.0
 10
4990.515592542178
 20
3029.331196768261
 30
0.0
 10
4990.813116977717
 20
3029.190487116288
 30
0.0
 10
4991.041137396655
 20
3029.083091867301
 30
0.0
 10
4991.166170362973
 20
3029.024331601918
 30
0.0
 10
4991.18131058104
 20
3029.017223976855
 30
0.0
 10
4991.189006425027
 20
3029.013611137637
 30
0.0
  0
LINE
  5
F5
330
1F
100
AcDbEntity
  8
0
  6
Continuous
 62
     7
370
    25
100
AcDbLine
 10
4991.189006425027
 20
3029.013611137637
 30
0.0
 11
4985.462192906937
 21
3025.707233811369
 31
0.0
  0
SPLINE
  5
F6
330
1F
100
AcDbEntity
  8
0
  6
Continuous
 62
     7
370
    25
100
AcDbSpline
210
0.0
220
0.0
230
1.0
 70
     8
 71
     3
 72
    13
 73
     9
 74
     0
 42
0.00000001
 43
0.0000000001
 40
0.0
 40
0.0
 40
0.0
 40
0.0
 40
0.2074964269245136
 40
0.4900206215364129
 40
0.6901745899068513
 40
0.845144594138922
 40
0.9766016119908565
 40
1.0
 40
1.0
 40
1.0
 40
1.0
 10
4985.462192906937
 20
3025.707233811369
 30
0.0
 10
4985.53915458037
 20
3025.760485878511
 30
0.0
 10
4985.72090617778
 20
3025.886245205676
 30
0.0
 10
4985.900710990677
 20
3026.169595896639
 30
0.0
 10
4985.976027049147
 20
3026.501652549546
 30
0.0
 10
4985.953834284821
 20
3026.790258181117
 30
0.0
 10
4985.888948102222
 20
3026.977645955796
 30
0.0
 10
4985.842366084446
 20
3027.064274371308
 30
0.0
 10
4985.835327620918
 20
3027.077363777308
 30
0.0
  0
LINE
  5
F7
330
1F
100
AcDbEntity
  8
0
  6
Continuous
 62
     7
370
    25
100
AcDbLine
 10
4978.579506526823
 20
3021.733512977061
 30
0.0
 11
4985.462192906937
 21
3025.707233811369
 31
0.0
  0
SPLINE
  5
F8
330
1F
100
AcDbEntity
  8
0
  6
Continuous
 62
     7
370
    25
100
AcDbSpline
210
0.0
220
0.0
230
1.0
 70
     8
 71
     3
 72
    14
 73
    10
 74
     0
 42
0.00000001
 43
0.0000000001
 40
0.0
 40
0.0
 40
0.0
 40
0.0
 40
0.1081993132956943
 40
0.2169299671281999
 40
0.3180442696460241
 40
0.4207399372445235
 40
0.5723650247537124
 40
0.7800438867915219
 40
0.9999999999999998
 40
0.9999999999999998
 40
0.9999999999999998
 40
0.9999999999999998
 10
4974.079506526822
 20
3024.331589188415
 30
0.0
 10
4974.096603422955
 20
3024.083078202924
 30
0.0
 10
4974.130881173924
 20
3023.584835854878
 30
0.0
 10
4974.435739150248
 20
3022.845634582899
 30
0.0
 10
4974.895616337941
 20
3022.231427091411
 30
0.0
 10
4975.535781249255
 20
3021.711628914753
 30
0.0
 10
4976.436657594279
 20
3021.337468789162
 30
0.0
 10
4977.545803501365
 20
3021.276876907503
 30
0.0
 10
4978.228406420992
 20
3021.578415266791
 30
0.0
 10
4978.579506526823
 20
3021.733512977061
 30
0.0
  0
SPLINE
  5
F9
330
1F
100
AcDbEntity
  8
0
  6
Continuous
 62
     7
370
    25
100
AcDbSpline
210
0.0
220
0.0
230
1.0
 70
    24
 71
     3
 72
     9
 73
     5
 74
     0
 42
0.00000001
 43
0.0000000001
 40
0.0
 40
0.0
 40
0.0
 40
0.0
 40
0.5447113614629555
 40
1.0
 40
1.0
 40
1.0
 40
1.0
 10
4974.079506526822
 20
3056.163204296396
 30
0.0
 10
4974.079506526822
 20
3054.259900562988
 30
0.0
 10
4974.079506526822
 20
3050.765749590448
 30
0.0
 10
4974.079506526822
 20
3047.313213677814
 30
0.0
 10
4974.079506526822
 20
3045.741313302651
 30
0.0
  0
LINE
  5
FA
330
1F
100
AcDbEntity
  8
0
  6
Continuous
 62
     7
370
    25
100
AcDbLine
 10
4974.079506526822
 20
3026.410503013412
 30
0.0
 11
4974.079506526822
 21
3024.331589188415
 31
0.0
  0
LINE
  5
FB
330
1F
100
AcDbEntity
  8
0
  6
Continuous
 62
     7
370
    25
100
AcDbLine
 10
4974.579506526779
 20
3056.663204263033
 30
0.0
 11
4974.079506526822
 21
3056.163204296396
 31
0.0
  0
LINE
  5
FC
330
1F
100
AcDbEntity
  8
0
  6
Continuous
 62
     7
370
    25
100
AcDbLine
 10
4974.079506526822
 20
3057.163204296312
 30
0.0
 11
4974.579506526779
 21
3056.663204263033
 31
0.0
  0
LINE
  5
FD
330
1F
100
AcDbEntity
  8
0
  6
Continuous
 62
     7
370
    25
100
AcDbLine
 10
4974.079506526822
 20
3088.994819337618
 30
0.0
 11
4974.079506526822
 21
3086.915905512656
 31
0.0
  0
SPLINE
  5
FE
330
1F
100
AcDbEntity
  8
0
  6
Continuous
 62
     7
370
    25
100
AcDbSpline
210
0.0
220
0.0
230
1.0
 70
    24
 71
     3
 72
    10
 73
     6
 74
     0
 42
0.00000001
 43
0.0000000001
 40
0.0
 40
0.0
 40
0.0
 40
0.0
 40
0.04528494097668
 40
0.5226593277898319
 40
1.0
 40
1.0
 40
1.0
 40
1.0
 10
4974.079506526822
 20
3067.586713578419
 30
0.0
 10
4974.079506526822
 20
3067.431578219706
 30
0.0
 10
4974.079506526822
 20
3065.64107257803
 30
0.0
 10
4974.079506526822
 20
3062.159402324035
 30
0.0
 10
4974.079506526822
 20
3058.828564430721
 30
0.0
 10
4974.079506526822
 20
3057.163204296312
 30
0.0
  0
SPLINE
  5
FF
330
1F
100
AcDbEntity
  8
0
  6
Continuous
 62
     7
370
    25
100
AcDbSpline
210
0.0
220
0.0
230
1.0
 70
     8
 71
     3
 72
    14
 73
    10
 74
     0
 42
0.00000001
 43
0.0000000001
 40
0.0
 40
0.0
 40
0.0
 40
0.0
 40
0.2660290138730405
 40
0.4554925880838127
 40
0.5966269089302281
 40
0.7093734207374395
 40
0.8226985097351056
 40
0.923438306100866
 40
1.0
 40
1.0
 40
1.0
 40
1.0
 10
4978.579506526852
 20
3091.592895548989
 30
0.0
 10
4978.149162174141
 20
3091.773196215908
 30
0.0
 10
4977.412330277015
 20
3092.081905466123
 30
0.0
 10
4976.256104524214
 20
3091.936365471116
 30
0.0
 10
4975.397606097943
 20
3091.528895001917
 30
0.0
 10
4974.752451089244
 20
3090.948155826035
 30
0.0
 10
4974.320258539818
 20
3090.256715083445
 30
0.0
 10
4974.108110254473
 20
3089.572039644963
 30
0.0
 10
4974.088133023208
 20
3089.16890115507
 30
0.0
 10
4974.079506526822
 20
3088.994819337618
 30
0.0
  0
LINE
  5
100
330
1F
100
AcDbEntity
  8
0
  6
Continuous
 62
     7
370
    25
100
AcDbLine
 10
4985.462192906937
 20
3087.619174714699
 30
0.0
 11
4978.579506526852
 21
3091.592895548989
 31
0.0
  0
SPLINE
  5
101
330
1F
100
AcDbEntity
  8
0
  6
Continuous
 62
     7
370
    25
100
AcDbSpline
210
0.0
220
0.0
230
1.0
 70
     8
 71
     3
 72
    12
 73
     8
 74
     0
 42
0.00000001
 43
0.0000000001
 40
0.0
 40
0.0
 40
0.0
 40
0.0
 40
0.1226556547367616
 40
0.2515518508855774
 40
0.4402222833467014
 40
0.7004170735758212
 40
1.0
 40
1.0
 40
1.0
 40
1.0
 10
4985.835327620918
 20
3086.249044748759
 30
0.0
 10
4985.868610584105
 20
3086.319972134541
 30
0.0
 10
4985.936869899263
 20
3086.46543558839
 30
0.0
 10
4985.975882473255
 20
3086.731771688559
 30
0.0
 10
4985.938921880924
 20
3087.049099006668
 30
0.0
 10
4985.775443611005
 20
3087.387426783573
 30
0.0
 10
4985.57139567691
 20
3087.538384741411
 30
0.0
 10
4985.462192906937
 20
3087.619174714699
 30
0.0
  0
ARC
  5
102
330
1F
100
AcDbEntity
  8
0
  6
Continuous
 62
     7
370
    25
100
AcDbCircle
 10
5039.079506526822
 20
3056.663204263033
 30
0.0
 40
60.9119409033294
100
AcDbArc
 50
150.9406752227297
 51
209.0593247772711
  0
LINE
  5
103
330
1F
100
AcDbEntity
  8
0
  6
Continuous
 62
     7
370
    25
100
AcDbLine
 10
4985.462192906937
 20
3087.619174714699
 30
0.0
 11
4991.18900642501
 21
3084.312797388441
 31
0.0
  0
SPLINE
  5
104
330
1F
100
AcDbEntity
  8
0
  6
Continuous
 62
     7
370
    25
100
AcDbSpline
210
0.0
220
0.0
230
1.0
 70
     8
 71
     3
 72
    16
 73
    12
 74
     0
 42
0.00000001
 43
0.0000000001
 40
0.0
 40
0.0
 40
0.0
 40
0.0
 40
0.1528706845390106
 40
0.3007461564602244
 40
0.5003016697896409
 40
0.7642097030913641
 40
0.9147700618767393
 40
0.967575347386373
 40
0.987593489600448
 40
0.9963469576909236
 40
1.0
 40
1.0
 40
1.0
 40
1.0
 10
4991.18900642501
 20
3084.312797388441
 30
0.0
 10
4991.181310581023
 20
3084.309184549222
 30
0.0
 10
4991.166170362956
 20
3084.302076924159
 30
0.0
 10
4991.041137396641
 20
3084.243316658775
 30
0.0
 10
4990.813116977706
 20
3084.135921409786
 30
0.0
 10
4990.515592542174
 20
3083.995211757811
 30
0.0
 10
4990.274468329867
 20
3083.880657380488
 30
0.0
 10
4990.157823635772
 20
3083.82512203347
 30
0.0
 10
4990.115171585533
 20
3083.804799323117
 30
0.0
 10
4990.098215186617
 20
3083.796717598592
 30
0.0
 10
4990.09172724647
 20
3083.793624860646
 30
0.0
 10
4990.089816901088
 20
3083.792714217588
 30
0.0
  0
LINE
  5
105
330
1F
100
AcDbEntity
  8
0
  6
Continuous
 62
     7
370
    25
100
AcDbLine
 10
4990.089816901088
 20
3083.792714217588
 30
0.0
 11
4985.835327620918
 21
3086.249044748759
 31
0.0
  0
SPLINE
  5
106
330
1F
100
AcDbEntity
  8
0
  6
Continuous
 62
     7
370
    25
100
AcDbSpline
210
0.0
220
0.0
230
1.0
 70
     8
 71
     3
 72
    16
 73
    12
 74
     0
 42
0.00000001
 43
0.0000000001
 40
0.0
 40
0.0
 40
0.0
 40
0.0
 40
0.0036546657631585
 40
0.0122997072660184
 40
0.0321705767509454
 40
0.0847325013563692
 40
0.2358261220646825
 40
0.4996639652923093
 40
0.6991759891142162
 40
0.8470687271786841
 40
1.0
 40
1.0
 40
1.0
 40
1.0
 10
4990.089816901088
 20
3029.533694308479
 30
0.0
 10
4990.091923332044
 20
3029.533490177957
 30
0.0
 10
4990.09901248487
 20
3029.532803180614
 30
0.0
 10
4990.117554256009
 20
3029.531008056038
 30
0.0
 10
4990.164273398591
 20
3029.52649341651
 30
0.0
 10
4990.292898965285
 20
3029.514125241891
 30
0.0
 10
4990.558694355623
 20
3029.488920503789
 30
0.0
 10
4990.886473822235
 20
3029.458753775274
 30
0.0
 10
4991.137183483767
 20
3029.436313092838
 30
0.0
 10
4991.274546845235
 20
3029.424201729049
 30
0.0
 10
4991.291172106474
 20
3029.422746770701
 30
0.0
 10
4991.299623966266
 20
3029.422007106897
 30
0.0
  0
ARC
  5
107
330
1F
100
AcDbEntity
  8
0
  6
Continuous
 62
     7
370
    25
100
AcDbCircle
 10
4991.039006425027
 20
3029.273418758771
 30
0.0
 40
0.3000000000000131
100
AcDbArc
 50
299.999999999951
 51
29.68917146177363
  0
SPLINE
  5
108
330
1F
100
AcDbEntity
  8
0
  6
Continuous
 62
     7
370
    25
100
AcDbSpline
210
0.0
220
0.0
230
1.0
 70
     8
 71
     3
 72
    16
 73
    12
 74
     0
 42
0.00000001
 43
0.0000000001
 40
0.0
 40
0.0
 40
0.0
 40
0.0
 40
0.1529312728223595
 40
0.3008240108871052
 40
0.500336034709213
 40
0.7641738779362152
 40
0.9152674986400668
 40
0.9678294232463457
 40
0.9877002927324534
 40
0.9963453342368271
 40
1.0
 40
1.0
 40
1.0
 40
1.0
 10
4991.299623966256
 20
3083.904401419154
 30
0.0
 10
4991.291172106464
 20
3083.903661755349
 30
0.0
 10
4991.274546845225
 20
3083.902206797001
 30
0.0
 10
4991.137183483758
 20
3083.890095433214
 30
0.0
 10
4990.886473822229
 20
3083.867654750782
 30
0.0
 10
4990.558694355621
 20
3083.837488022272
 30
0.0
 10
4990.292898965286
 20
3083.812283284174
 30
0.0
 10
4990.164273398597
 20
3083.799915109557
 30
0.0
 10
4990.11755425601
 20
3083.795400470029
 30
0.0
 10
4990.099012484871
 20
3083.793605345454
 30
0.0
 10
4990.091923332044
 20
3083.792918348111
 30
0.0
 10
4990.089816901088
 20
3083.792714217588
 30
0.0
  0
ARC
  5
109
330
1F
100
AcDbEntity
  8
0
  6
Continuous
 62
     7
370
    25
100
AcDbCircle
 10
4991.039006424999
 20
3084.052989767288
 30
0.0
 40
0.3000000000205406
100
AcDbArc
 50
330.3108285382019
 51
59.99999999993828
  0
ARC
  5
10A
330
1F
100
AcDbEntity
  8
0
  6
Continuous
 62
     7
370
    25
100
AcDbCircle
 10
5039.079506526822
 20
3056.663204263033
 30
0.0
 40
55.00000000000071
100
AcDbArc
 50
150.3108285382881
 51
179.4791086467574
  0
SPLINE
  5
10B
330
1F
100
AcDbEntity
  8
0
  6
Continuous
 62
     7
370
    25
100
AcDbSpline
210
0.0
220
0.0
230
1.0
 70
     8
 71
     3
 72
    13
 73
     9
 74
     0
 42
0.00000001
 43
0.0000000001
 40
0.0
 40
0.0
 40
0.0
 40
0.0
 40
0.1950870218985182
 40
0.3899512097010213
 40
0.5909361417550708
 40
0.8061487093031226
 40
0.9953387603440258
 40
1.0
 40
1.0
 40
1.0
 40
1.0
 10
4984.081779418477
 20
3057.16321717895
 30
0.0
 10
4984.071879280225
 20
3057.167369591238
 30
0.0
 10
4984.052090311948
 20
3057.175669672808
 30
0.0
 10
4983.899330726185
 20
3057.239808643274
 30
0.0
 10
4983.671599600578
 20
3057.335622791477
 30
0.0
 10
4983.391162813829
 20
3057.453936620336
 30
0.0
 10
4983.186183126218
 20
3057.540685033485
 30
0.0
 10
4983.089383485218
 20
3057.58171337778
 30
0.0
 10
4983.087055895219
 20
3057.582699922387
 30
0.0
  0
ARC
  5
10C
330
1F
100
AcDbEntity
  8
0
  6
Continuous
 62
     7
370
    25
100
AcDbCircle
 10
5039.079506526822
 20
3056.663204263033
 30
0.0
 40
56.00000000000048
100
AcDbArc
 50
151.0231933036861
 51
179.0591859267832
  0
ARC
  5
10D
330
1F
100
AcDbEntity
  8
0
  6
Continuous
 62
     7
370
    25
100
AcDbCircle
 10
5039.079506526822
 20
3056.663204263033
 30
0.0
 40
56.00000000000037
100
AcDbArc
 50
180.9408028636824
 51
208.9768066963147
  0
SPLINE
  5
10E
330
1F
100
AcDbEntity
  8
0
  6
Continuous
 62
     7
370
    25
100
AcDbSpline
210
0.0
220
0.0
230
1.0
 70
     8
 71
     3
 72
    13
 73
     9
 74
     0
 42
0.00000001
 43
0.0000000001
 40
0.0
 40
0.0
 40
0.0
 40
0.0
 40
0.0046611651922782
 40
0.1938548874124243
 40
0.4090673705453221
 40
0.6100513477736826
 40
0.8049142503526956
 40
1.0
 40
1.0
 40
1.0
 40
1.0
 10
4983.087055715327
 20
3055.743719558229
 30
0.0
 10
4983.089383262167
 20
3055.744706119098
 30
0.0
 10
4983.186184450676
 20
3055.785736556412
 30
0.0
 10
4983.391165413778
 20
3055.872488544063
 30
0.0
 10
4983.671602381097
 20
3055.990806581531
 30
0.0
 10
4983.89933190073
 20
3056.086623399112
 30
0.0
 10
4984.052090289761
 20
3056.150764105777
 30
0.0
 10
4984.071879117462
 20
3056.159064418042
 30
0.0
 10
4984.081779185752
 20
3056.163216945897
 30
0.0
  0
ARC
  5
10F
330
1F
100
AcDbEntity
  8
0
  6
Continuous
 62
     7
370
    25
100
AcDbCircle
 10
5039.079506526822
 20
3056.663204263033
 30
0.0
 40
55.00000000000059
100
AcDbArc
 50
180.5208646848315
 51
209.6891714617335
  0
LINE
  5
110
330
1F
100
AcDbEntity
  8
0
  6
Continuous
 62
     7
370
    25
100
AcDbLine
 10
4984.081779418477
 20
3057.16321717895
 30
0.0
 11
4983.581779185751
 21
3056.663204263033
 31
0.0
  0
LINE
  5
111
330
1F
100
AcDbEntity
  8
0
  6
Continuous
 62
     7
370
    25
100
AcDbLine
 10
4982.167565623492
 20
3056.663186326528
 30
0.0
 11
4983.581779185751
 21
3056.663204263033
 31
0.0
  0
LINE
  5
112
330
1F
100
AcDbEntity
  8
0
  6
Continuous
 62
     7
370
    25
100
AcDbLine
 10
4982.167565623492
 20
3056.663186326528
 30
0.0
 11
4983.087055895219
 21
3057.582699922387
 31
0.0
  0
LINE
  5
113
330
1F
100
AcDbEntity
  8
0
  6
Continuous
 62
     7
370
    25
100
AcDbLine
 10
4983.087055715327
 20
3055.743719558229
 30
0.0
 11
4982.167565623492
 21
3056.663186326528
 31
0.0
  0
LINE
  5
114
330
1F
100
AcDbEntity
  8
0
  6
Continuous
 62
     7
370
    25
100
AcDbLine
 10
4983.581779185751
 20
3056.663204263033
 30
0.0
 11
4984.081779185752
 21
3056.163216945897
 31
0.0
  0
LINE
  5
115
330
1F
100
AcDbEntity
  8
0
  6
Continuous
 62
     7
370
    25
100
AcDbLine
 10
3627.047128919541
 20
2986.822514911369
 30
0.0
 11
3623.583027304404
 21
2988.822514911368
 31
0.0
  0
LINE
  5
116
330
1F
100
AcDbEntity
  8
0
  6
Continuous
 62
     7
370
    25
100
AcDbLine
 10
3626.147609866702
 20
2986.764502209476
 30
0.0
 11
3623.982546357241
 21
2988.014502209476
 31
0.0
  0
LINE
  5
117
330
1F
100
AcDbEntity
  8
0
  6
Continuous
 62
     7
370
    25
100
AcDbLine
 10
3588.075985749242
 20
3009.322514911368
 30
0.0
 11
3584.611884134104
 21
3011.322514911368
 31
0.0
  0
LINE
  5
118
330
1F
100
AcDbEntity
  8
0
  6
Continuous
 62
     7
370
    25
100
AcDbLine
 10
3587.176466696403
 20
3009.264502209476
 30
0.0
 11
3585.011403186941
 21
3010.514502209476
 31
0.0
  0
LINE
  5
119
330
1F
100
AcDbEntity
  8
0
  6
Continuous
 62
     7
370
    25
100
AcDbLine
 10
3629.895205130894
 20
2985.755527613261
 30
0.0
 11
3630.395205130894
 21
2986.621553017045
 31
0.0
  0
LINE
  5
11A
330
1F
100
AcDbEntity
  8
0
  6
Continuous
 62
     7
370
    25
100
AcDbLine
 10
3625.565078111971
 20
2988.255527613261
 30
0.0
 11
3626.065078111972
 21
2989.121553017044
 31
0.0
  0
LINE
  5
11B
330
1F
100
AcDbEntity
  8
0
  6
Continuous
 62
     7
370
    25
100
AcDbLine
 10
3629.895205130894
 20
2985.755527613261
 30
0.0
 11
3625.565078111971
 21
2988.255527613261
 31
0.0
  0
LINE
  5
11C
330
1F
100
AcDbEntity
  8
0
  6
Continuous
 62
     7
370
    25
100
AcDbLine
 10
3586.593934941672
 20
3010.755527613261
 30
0.0
 11
3587.093934941672
 21
3011.621553017045
 31
0.0
  0
LINE
  5
11D
330
1F
100
AcDbEntity
  8
0
  6
Continuous
 62
     7
370
    25
100
AcDbLine
 10
3606.880267378205
 20
3000.197908658537
 30
0.0
 11
3606.278745617725
 21
3000.545197408873
 31
0.0
  0
LINE
  5
11E
330
1F
100
AcDbEntity
  8
0
  6
Continuous
 62
     7
370
    25
100
AcDbLine
 10
3625.565078111971
 20
2988.255527613261
 30
0.0
 11
3586.593934941672
 21
3010.755527613261
 31
0.0
  0
LINE
  5
11F
330
1F
100
AcDbEntity
  8
0
  6
Continuous
 62
     7
370
    25
100
AcDbLine
 10
3582.26380792275
 20
3013.255527613261
 30
0.0
 11
3582.76380792275
 21
3014.121553017045
 31
0.0
  0
LINE
  5
120
330
1F
100
AcDbEntity
  8
0
  6
Continuous
 62
     7
370
    25
100
AcDbLine
 10
3586.593934941672
 20
3010.755527613261
 30
0.0
 11
3582.26380792275
 21
3013.255527613261
 31
0.0
  0
LINE
  5
121
330
1F
100
AcDbEntity
  8
0
  6
Continuous
 62
     7
370
    25
100
AcDbLine
 10
3638.079506526822
 20
2995.759472484014
 30
0.0
 11
3638.079506526822
 21
3000.672133546355
 31
0.0
  0
SPLINE
  5
122
330
1F
100
AcDbEntity
  8
0
  6
Continuous
 62
     7
370
    25
100
AcDbSpline
210
0.0
220
0.0
230
1.0
 70
     8
 71
     3
 72
    16
 73
    12
 74
     0
 42
0.00000001
 43
0.0000000001
 40
0.0
 40
0.0
 40
0.0
 40
0.0
 40
0.0036530423091446
 40
0.012406510397833
 40
0.0324246526109172
 40
0.0852299381197267
 40
0.2357902969095471
 40
0.4996983302118082
 40
0.6992538435410918
 40
0.8471293154620347
 40
1.0
 40
1.0
 40
1.0
 40
1.0
 10
3638.079506526822
 20
3000.672133546355
 30
0.0
 10
3638.081250339535
 20
3000.673332632457
 30
0.0
 10
3638.087172699236
 20
3000.677404984469
 30
0.0
 10
3638.102649877436
 20
3000.688048794426
 30
0.0
 10
3638.141575885995
 20
3000.714825198277
 30
0.0
 10
3638.247993254367
 20
3000.788074793076
 30
0.0
 10
3638.4677623614
 20
3000.939617297743
 30
0.0
 10
3638.738382712335
 20
3001.126926191181
 30
0.0
 10
3638.945399935674
 20
3001.270700042069
 30
0.0
 10
3639.058804301387
 20
3001.349601634519
 30
0.0
 10
3639.072529794285
 20
3001.359159635452
 30
0.0
 10
3639.079506526821
 20
3001.364018012239
 30
0.0
  0
LINE
  5
123
330
1F
100
AcDbEntity
  8
0
  6
Continuous
 62
     7
370
    25
100
AcDbLine
 10
3639.079506526821
 20
3001.364018012239
 30
0.0
 11
3639.079506526821
 21
2994.751263359704
 31
0.0
  0
SPLINE
  5
124
330
1F
100
AcDbEntity
  8
0
  6
Continuous
 62
     7
370
    25
100
AcDbSpline
210
0.0
220
0.0
230
1.0
 70
     8
 71
     3
 72
    13
 73
     9
 74
     0
 42
0.00000001
 43
0.0000000001
 40
0.0
 40
0.0
 40
0.0
 40
0.0
 40
0.207496426924487
 40
0.4900206215364583
 40
0.690174589906872
 40
0.8451445941388294
 40
0.9766016119908801
 40
1.0
 40
1.0
 40
1.0
 40
1.0
 10
3639.079506526821
 20
2994.751263359704
 30
0.0
 10
3639.071869720589
 20
2994.844540157586
 30
0.0
 10
3639.053834747206
 20
2995.064821321704
 30
0.0
 10
3638.898348257102
 20
2995.362212202877
 30
0.0
 10
3638.648436789424
 20
2995.593466149278
 30
0.0
 10
3638.387400598643
 20
2995.718549467377
 30
0.0
 10
3638.192674934114
 20
2995.756050272231
 30
0.0
 10
3638.094361516703
 20
2995.759023269233
 30
0.0
 10
3638.079506526822
 20
2995.759472484014
 30
0.0
  0
LINE
  5
125
330
1F
100
AcDbEntity
  8
0
  6
Continuous
 62
     7
370
    25
100
AcDbLine
 10
3639.079506526821
 20
2986.803821691088
 30
0.0
 11
3639.079506526821
 21
2994.751263359704
 31
0.0
  0
SPLINE
  5
126
330
1F
100
AcDbEntity
  8
0
  6
Continuous
 62
     7
370
    25
100
AcDbSpline
210
0.0
220
0.0
230
1.0
 70
     8
 71
     3
 72
    14
 73
    10
 74
     0
 42
0.00000001
 43
0.0000000001
 40
0.0
 40
0.0
 40
0.0
 40
0.0
 40
0.1081993132956634
 40
0.2169299671281922
 40
0.3180442696460295
 40
0.420739937244506
 40
0.5723650247537309
 40
0.7800438867915442
 40
0.9999999999999998
 40
0.9999999999999998
 40
0.9999999999999998
 40
0.9999999999999998
 10
3634.579506526822
 20
2984.205745479735
 30
0.0
 10
3634.803271801442
 20
2984.096296333368
 30
0.0
 10
3635.251901207577
 20
2983.876860562469
 30
0.0
 10
3636.044497275781
 20
2983.771274678521
 30
0.0
 10
3636.806355160452
 20
2983.86243625994
 30
0.0
 10
3637.576596041935
 20
2984.156936247421
 30
0.0
 10
3638.351066388292
 20
2984.750037985084
 30
0.0
 10
3638.958113450615
 20
2985.680290576295
 30
0.0
 10
3639.038275031069
 20
2986.422211225033
 30
0.0
 10
3639.079506526821
 20
2986.803821691088
 30
0.0
  0
SPLINE
  5
127
330
1F
100
AcDbEntity
  8
0
  6
Continuous
 62
     7
370
    25
100
AcDbSpline
210
0.0
220
0.0
230
1.0
 70
    24
 71
     3
 72
    12
 73
     8
 74
     0
 42
0.00000001
 43
0.0000000001
 40
0.0
 40
0.0
 40
0.0
 40
0.0
 40
0.1731309271760673
 40
0.3462818795532265
 40
0.5240776342849988
 40
0.7019121627657761
 40
1.0
 40
1.0
 40
1.0
 40
1.0
 10
3607.012519199822
 20
3000.121553033726
 30
0.0
 10
3608.659518551018
 20
2999.170657514958
 30
0.0
 10
3611.953707753707
 20
2997.268756492024
 30
0.0
 10
3616.898325011876
 20
2994.41398038698
 30
0.0
 10
3621.811748802745
 20
2991.577213838679
 30
0.0
 10
3627.780637554145
 20
2988.131074311295
 30
0.0
 10
3631.961117079264
 20
2985.717473332126
 30
0.0
 10
3634.579506526822
 20
2984.205745479735
 30
0.0
  0
LINE
  5
128
330
1F
100
AcDbEntity
  8
0
  6
Continuous
 62
     7
370
    25
100
AcDbLine
 10
3606.8295065268
 20
3000.804565718901
 30
0.0
 11
3607.012519199822
 21
3000.121553033726
 31
0.0
  0
LINE
  5
129
330
1F
100
AcDbEntity
  8
0
  6
Continuous
 62
     7
370
    25
100
AcDbLine
 10
3606.14649379611
 20
3000.621553033684
 30
0.0
 11
3606.8295065268
 21
3000.804565718901
 31
0.0
  0
SPLINE
  5
12A
330
1F
100
AcDbEntity
  8
0
  6
Continuous
 62
     7
370
    25
100
AcDbSpline
210
0.0
220
0.0
230
1.0
 70
    24
 71
     3
 72
    13
 73
     9
 74
     0
 42
0.00000001
 43
0.0000000001
 40
0.0
 40
0.0
 40
0.0
 40
0.0
 40
0.1990048052453177
 40
0.3988370423159949
 40
0.5477151999966911
 40
0.6965743628195784
 40
0.8482925389637522
 40
1.0
 40
1.0
 40
1.0
 40
1.0
 10
3578.579506526852
 20
3016.537360554337
 30
0.0
 10
3580.321539871373
 20
3015.53159713394
 30
0.0
 10
3583.812849671094
 20
3013.515888481247
 30
0.0
 10
3588.761724700161
 20
3010.65865415103
 30
0.0
 10
3593.341294011577
 20
3008.014638576311
 30
0.0
 10
3597.54159467187
 20
3005.589593859414
 30
0.0
 10
3601.816417046268
 20
3003.121524010817
 30
0.0
 10
3604.703168860207
 20
3001.454857073956
 30
0.0
 10
3606.14649379611
 20
3000.621553033684
 30
0.0
  0
SPLINE
  5
12B
330
1F
100
AcDbEntity
  8
0
  6
Continuous
 62
     7
370
    25
100
AcDbSpline
210
0.0
220
0.0
230
1.0
 70
     8
 71
     3
 72
    14
 73
    10
 74
     0
 42
0.00000001
 43
0.0000000001
 40
0.0
 40
0.0
 40
0.0
 40
0.0
 40
0.2660290138729992
 40
0.4554925880838203
 40
0.596626908930213
 40
0.7093734207374507
 40
0.8226985097351089
 40
0.9234383061008839
 40
1.0
 40
1.0
 40
1.0
 40
1.0
 10
3578.579506526852
 20
3021.733512977079
 30
0.0
 10
3578.208189392626
 20
3021.450974168716
 30
0.0
 10
3577.572423390993
 20
3020.967213652593
 30
0.0
 10
3577.120351847535
 20
3019.893122780656
 30
0.0
 10
3577.043982412018
 20
3018.945906099795
 30
0.0
 10
3577.224339786955
 20
3018.096815884941
 30
0.0
 10
3577.607048760537
 20
3017.376805786517
 30
0.0
 10
3578.093920940936
 20
3016.850742262799
 30
0.0
 10
3578.433060498794
 20
3016.631872228079
 30
0.0
 10
3578.579506526852
 20
3016.537360554337
 30
0.0
  0
LINE
  5
12C
330
1F
100
AcDbEntity
  8
0
  6
Continuous
 62
     7
370
    25
100
AcDbLine
 10
3585.462192906938
 20
3025.707233811369
 30
0.0
 11
3578.579506526852
 21
3021.733512977079
 31
0.0
  0
SPLINE
  5
12D
330
1F
100
AcDbEntity
  8
0
  6
Continuous
 62
     7
370
    25
100
AcDbSpline
210
0.0
220
0.0
230
1.0
 70
     8
 71
     3
 72
    12
 73
     8
 74
     0
 42
0.00000001
 43
0.0000000001
 40
0.0
 40
0.0
 40
0.0
 40
0.0
 40
0.1226556547366813
 40
0.25155185088561
 40
0.4402222833467188
 40
0.7004170735758193
 40
1.0
 40
1.0
 40
1.0
 40
1.0
 10
3586.835327620918
 20
3025.34531296974
 30
0.0
 10
3586.790544184599
 20
3025.409600554264
 30
0.0
 10
3586.698698795824
 20
3025.54144658216
 30
0.0
 10
3586.487551254128
 20
3025.708400512387
 30
0.0
 10
3586.194257439166
 20
3025.835055359546
 30
0.0
 10
3585.819517854601
 20
3025.862642913282
 30
0.0
 10
3585.586760461162
 20
3025.761411197684
 30
0.0
 10
3585.462192906938
 20
3025.707233811369
 30
0.0
  0
ARC
  5
12E
330
1F
100
AcDbEntity
  8
0
  6
Continuous
 62
     7
370
    25
100
AcDbCircle
 10
3639.079506526821
 20
3056.663204263033
 30
0.0
 40
60.91194090332929
100
AcDbArc
 50
210.9406752227306
 51
269.0593247772708
  0
LINE
  5
12F
330
1F
100
AcDbEntity
  8
0
  6
Continuous
 62
     7
370
    25
100
AcDbLine
 10
3585.462192906938
 20
3025.707233811369
 30
0.0
 11
3591.18900642501
 21
3029.013611137627
 31
0.0
  0
SPLINE
  5
130
330
1F
100
AcDbEntity
  8
0
  6
Continuous
 62
     7
370
    25
100
AcDbSpline
210
0.0
220
0.0
230
1.0
 70
     8
 71
     3
 72
    16
 73
    12
 74
     0
 42
0.00000001
 43
0.0000000001
 40
0.0
 40
0.0
 40
0.0
 40
0.0
 40
0.1528706845387342
 40
0.3007461564602143
 40
0.5003016697896032
 40
0.7642097030913772
 40
0.9147700618767075
 40
0.9675753473863631
 40
0.9875934896003844
 40
0.9963469576907961
 40
1.0
 40
1.0
 40
1.0
 40
1.0
 10
3591.18900642501
 20
3029.013611137627
 30
0.0
 10
3591.188287313559
 20
3029.005139921621
 30
0.0
 10
3591.186872588391
 20
3028.988474295625
 30
0.0
 10
3591.175243987789
 20
3028.850812437793
 30
0.0
 10
3591.154240792193
 20
3028.59964333792
 30
0.0
 10
3591.127336707592
 20
3028.271624792515
 30
0.0
 10
3591.105981602319
 20
3028.005527910528
 30
0.0
 10
3591.095754276594
 20
3027.876742968717
 30
0.0
 10
3591.092028234917
 20
3027.829643854509
 30
0.0
 10
3591.090549014201
 20
3027.810918320029
 30
0.0
 10
3591.089983433756
 20
3027.803753230071
 30
0.0
 10
3591.089816901088
 20
3027.80164350091
 30
0.0
  0
LINE
  5
131
330
1F
100
AcDbEntity
  8
0
  6
Continuous
 62
     7
370
    25
100
AcDbLine
 10
3591.089816901088
 20
3027.80164350091
 30
0.0
 11
3586.835327620918
 21
3025.34531296974
 31
0.0
  0
ARC
  5
132
330
1F
100
AcDbEntity
  8
0
  6
Continuous
 62
     7
370
    25
100
AcDbCircle
 10
3639.079506526821
 20
3056.663204263033
 30
0.0
 40
56.0000000000001
100
AcDbArc
 50
240.9408028636825
 51
268.9768066963146
  0
SPLINE
  5
133
330
1F
100
AcDbEntity
  8
0
  6
Continuous
 62
     7
370
    25
100
AcDbSpline
210
0.0
220
0.0
230
1.0
 70
     8
 71
     3
 72
    13
 73
     9
 74
     0
 42
0.00000001
 43
0.0000000001
 40
0.0
 40
0.0
 40
0.0
 40
0.0
 40
0.0046611651922601
 40
0.1938548874123682
 40
0.4090673705454796
 40
0.6100513477736182
 40
0.8049142503526633
 40
1.0
 40
1.0
 40
1.0
 40
1.0
 10
3611.879578233827
 20
3007.712577087726
 30
0.0
 10
3611.879887620471
 20
3007.715086082852
 30
0.0
 10
3611.892754813686
 20
3007.819433589873
 30
0.0
 10
3611.920115870099
 20
3008.04032830504
 30
0.0
 10
3611.957867927586
 20
3008.34235286163
 30
0.0
 10
3611.988752889268
 20
3008.587480819617
 30
0.0
 10
3612.009584602395
 20
3008.75184381849
 30
0.0
 10
3612.012290734965
 20
3008.773131602123
 30
0.0
 10
3612.013644574497
 20
3008.783781576689
 30
0.0
  0
ARC
  5
134
330
1F
100
AcDbEntity
  8
0
  6
Continuous
 62
     7
370
    25
100
AcDbCircle
 10
3639.079506526821
 20
3056.663204263033
 30
0.0
 40
55.00000000000014
100
AcDbArc
 50
240.5208646848308
 51
269.6891714617339
  0
SPLINE
  5
135
330
1F
100
AcDbEntity
  8
0
  6
Continuous
 62
     7
370
    25
100
AcDbSpline
210
0.0
220
0.0
230
1.0
 70
     8
 71
     3
 72
    16
 73
    12
 74
     0
 42
0.00000001
 43
0.0000000001
 40
0.0
 40
0.0
 40
0.0
 40
0.0
 40
0.0036546657631571
 40
0.0122997072659717
 40
0.03217057675091
 40
0.0847325013563415
 40
0.2358261220646792
 40
0.4996639652923215
 40
0.6991759891142299
 40
0.8470687271786793
 40
0.9999999999999998
 40
0.9999999999999998
 40
0.9999999999999998
 40
0.9999999999999998
 10
3638.079506526822
 20
3000.672133546355
 30
0.0
 10
3638.080736524518
 20
3000.673855703813
 30
0.0
 10
3638.084876058083
 20
3000.67965159158
 30
0.0
 10
3638.095701567136
 20
3000.694811674131
 30
0.0
 10
3638.122970930949
 20
3000.733014318686
 30
0.0
 10
3638.197994867712
 20
3000.838223239709
 30
0.0
 10
3638.352720506375
 20
3001.0558064309
 30
0.0
 10
3638.542735392924
 20
3001.324588411566
 30
0.0
 10
3638.687524424759
 20
3001.530489006209
 30
0.0
 10
3638.766694854207
 20
3001.643393484895
 30
0.0
 10
3638.776267515719
 20
3001.657063904299
 30
0.0
 10
3638.781134013259
 20
3001.664013597686
 30
0.0
  0
ARC
  5
136
330
1F
100
AcDbEntity
  8
0
  6
Continuous
 62
     7
370
    25
100
AcDbCircle
 10
3638.779506526822
 20
3001.364018012239
 30
0.0
 40
0.3000000000001819
100
AcDbArc
 50
0.0
 51
89.68917146168115
  0
ARC
  5
137
330
1F
100
AcDbEntity
  8
0
  6
Continuous
 62
     7
370
    25
100
AcDbCircle
 10
3639.079506526821
 20
3056.663204263033
 30
0.0
 40
54.99999999999992
100
AcDbArc
 50
210.3108285382884
 51
239.4791086467577
  0
SPLINE
  5
138
330
1F
100
AcDbEntity
  8
0
  6
Continuous
 62
     7
370
    25
100
AcDbSpline
210
0.0
220
0.0
230
1.0
 70
     8
 71
     3
 72
    13
 73
     9
 74
     0
 42
0.00000001
 43
0.0000000001
 40
0.0
 40
0.0
 40
0.0
 40
0.0
 40
0.1950870218985565
 40
0.3899512097009056
 40
0.590936141755159
 40
0.8061487093031505
 40
0.9953387603441278
 40
1.0
 40
1.0
 40
1.0
 40
1.0
 10
3611.147619085245
 20
3009.283781894762
 30
0.0
 10
3611.139072921591
 20
3009.277284329679
 30
0.0
 10
3611.12199035596
 20
3009.26429662122
 30
0.0
 10
3610.990064585281
 20
3009.16407242451
 30
0.0
 10
3610.793221536091
 20
3009.014758558604
 30
0.0
 10
3610.55054036131
 20
3008.831050091553
 30
0.0
 10
3610.372924187972
 20
3008.696906681397
 30
0.0
 10
3610.288992779042
 20
3008.63358990536
 30
0.0
 10
3610.286974611352
 20
3008.632067425596
 30
0.0
  0
ARC
  5
139
330
1F
100
AcDbEntity
  8
0
  6
Continuous
 62
     7
370
    25
100
AcDbCircle
 10
3639.079506526821
 20
3056.663204263033
 30
0.0
 40
55.99999999999962
100
AcDbArc
 50
211.0231933036866
 51
239.0591859267839
  0
SPLINE
  5
13A
330
1F
100
AcDbEntity
  8
0
  6
Continuous
 62
     7
370
    25
100
AcDbSpline
210
0.0
220
0.0
230
1.0
 70
     8
 71
     3
 72
    16
 73
    12
 74
     0
 42
0.00000001
 43
0.0000000001
 40
0.0
 40
0.0
 40
0.0
 40
0.0
 40
0.1529312728220936
 40
0.3008240108870748
 40
0.5003360347091445
 40
0.7641738779361584
 40
0.9152674986400196
 40
0.9678294232462386
 40
0.9877002927323003
 40
0.9963453342367978
 40
1.0
 40
1.0
 40
1.0
 40
1.0
 10
3591.597996479839
 20
3028.905210753807
 30
0.0
 10
3591.594411117587
 20
3028.897521396615
 30
0.0
 10
3591.587358517859
 20
3028.882396018863
 30
0.0
 10
3591.529165585839
 20
3028.75738017639
 30
0.0
 10
3591.423244956139
 20
3028.529038899316
 30
0.0
 10
3591.285480376074
 20
3028.23009019014
 30
0.0
 10
3591.174410624398
 20
3027.987302260851
 30
0.0
 10
3591.120808994466
 20
3027.869725165215
 30
0.0
 10
3591.101359215696
 20
3027.827007881127
 30
0.0
 10
3591.093642953609
 20
3027.810052674003
 30
0.0
 10
3591.090693334347
 20
3027.80356978889
 30
0.0
 10
3591.089816901088
 20
3027.80164350091
 30
0.0
  0
ARC
  5
13B
330
1F
100
AcDbEntity
  8
0
  6
Continuous
 62
     7
370
    25
100
AcDbCircle
 10
3591.33900642502
 20
3028.753803516474
 30
0.0
 40
0.3000000000206517
100
AcDbArc
 50
30.31082853826804
 51
119.9999999999113
  0
LINE
  5
13C
330
1F
100
AcDbEntity
  8
0
  6
Continuous
 62
     7
370
    25
100
AcDbLine
 10
3611.147619085245
 20
3009.283781894762
 30
0.0
 11
3611.330642856287
 21
3008.600762533365
 31
0.0
  0
LINE
  5
13D
330
1F
100
AcDbEntity
  8
0
  6
Continuous
 62
     7
370
    25
100
AcDbLine
 10
3610.623551608626
 20
3007.37600869382
 30
0.0
 11
3611.330642856287
 21
3008.600762533365
 31
0.0
  0
LINE
  5
13E
330
1F
100
AcDbEntity
  8
0
  6
Continuous
 62
     7
370
    25
100
AcDbLine
 10
3610.623551608626
 20
3007.37600869382
 30
0.0
 11
3610.286974611352
 21
3008.632067425596
 31
0.0
  0
LINE
  5
13F
330
1F
100
AcDbEntity
  8
0
  6
Continuous
 62
     7
370
    25
100
AcDbLine
 10
3611.879578233827
 20
3007.712577087726
 30
0.0
 11
3610.623551608626
 21
3007.37600869382
 31
0.0
  0
LINE
  5
140
330
1F
100
AcDbEntity
  8
0
  6
Continuous
 62
     7
370
    25
100
AcDbLine
 10
3611.330642856287
 20
3008.600762533365
 30
0.0
 11
3612.013644574497
 21
3008.783781576689
 31
0.0
  0
LINE
  5
141
330
1F
100
AcDbEntity
  8
0
  6
Continuous
 62
     7
370
    25
100
AcDbLine
 10
3642.079506526822
 20
3116.084627692438
 30
0.0
 11
3636.079506526822
 21
3116.084627692438
 31
0.0
  0
LINE
  5
142
330
1F
100
AcDbEntity
  8
0
  6
Continuous
 62
     7
370
    25
100
AcDbLine
 10
3645.079506526822
 20
3112.584627692438
 30
0.0
 11
3633.079506526822
 21
3112.584627692438
 31
0.0
  0
LINE
  5
143
330
1F
100
AcDbEntity
  8
0
  6
Continuous
 62
     7
370
    25
100
AcDbLine
 10
3645.079506526822
 20
3111.584627692438
 30
0.0
 11
3639.452029866087
 21
3111.584627692438
 31
0.0
  0
LINE
  5
144
330
1F
100
AcDbEntity
  8
0
  6
Continuous
 62
     7
370
    25
100
AcDbLine
 10
3638.706983193091
 20
3111.584627692438
 30
0.0
 11
3633.079506526822
 21
3111.584627692438
 31
0.0
  0
LINE
  5
145
330
1F
100
AcDbEntity
  8
0
  6
Continuous
 62
     7
370
    25
100
AcDbLine
 10
5042.079506526822
 20
3116.084627692438
 30
0.0
 11
5036.079506526821
 21
3116.084627692438
 31
0.0
  0
LINE
  5
146
330
1F
100
AcDbEntity
  8
0
  6
Continuous
 62
     7
370
    25
100
AcDbLine
 10
5045.079506526822
 20
3112.584627692438
 30
0.0
 11
5033.079506526822
 21
3112.584627692438
 31
0.0
  0
LINE
  5
147
330
1F
100
AcDbEntity
  8
0
  6
Continuous
 62
     7
370
    25
100
AcDbLine
 10
5045.079506526822
 20
3111.584627692438
 30
0.0
 11
5039.452029866087
 21
3111.584627692438
 31
0.0
  0
LINE
  5
148
330
1F
100
AcDbEntity
  8
0
  6
Continuous
 62
     7
370
    25
100
AcDbLine
 10
5038.706983193091
 20
3111.584627692438
 30
0.0
 11
5033.079506526822
 21
3111.584627692438
 31
0.0
  0
LINE
  5
149
330
1F
100
AcDbEntity
  8
0
  6
Continuous
 62
     7
370
    25
100
AcDbLine
 10
5030.774862244169
 20
3054.554438310976
 30
0.0
 11
5030.774862244169
 21
3055.460305499831
 31
0.0
  0
SPLINE
  5
14A
330
1F
100
AcDbEntity
  8
0
  6
Continuous
 62
     7
370
    25
100
AcDbSpline
210
0.0
220
0.0
230
1.0
 70
     8
 71
     3
 72
    23
 73
    19
 74
     0
 42
0.00000001
 43
0.0000000001
 40
0.0
 40
0.0
 40
0.0
 40
0.0
 40
0.0625003191969383
 40
0.1249992395012215
 40
0.1874915822001336
 40
0.2499816454423837
 40
0.3124735293962524
 40
0.3749692624755315
 40
0.4374687162947467
 40
0.4999702749476305
 40
0.5624712575477951
 40
0.624968495315208
 40
0.6874594909352345
 40
0.7499436725622579
 40
0.8124228766245057
 40
0.8749006420425477
 40
0.9373807521372155
 40
1.0
 40
1.0
 40
1.0
 40
1.0
 10
5026.005537876168
 20
3054.651497202895
 30
0.0
 10
5025.318305550117
 20
3054.319767540523
 30
0.0
 10
5023.943856279763
 20
3053.656315640608
 30
0.0
 10
5022.463335287031
 20
3051.85183272005
 30
0.0
 10
5021.646066851679
 20
3049.694130668319
 30
0.0
 10
5021.618275028626
 20
3047.367992630583
 30
0.0
 10
5022.383458186293
 20
3045.168905694076
 30
0.0
 10
5023.854688892781
 20
3043.360044537348
 30
0.0
 10
5025.851950806927
 20
3042.162888126132
 30
0.0
 10
5028.131201084723
 20
3041.717832072599
 30
0.0
 10
5030.419538224242
 20
3042.071241011008
 30
0.0
 10
5032.449648091435
 20
3043.175884540136
 30
0.0
 10
5033.987125884102
 20
3044.90210685803
 30
0.0
 10
5034.851146284364
 20
3047.049811735927
 30
0.0
 10
5034.936820440036
 20
3049.373879568496
 30
0.0
 10
5034.220133504994
 20
3051.579479548287
 30
0.0
 10
5032.809453687135
 20
3053.466262388476
 30
0.0
 10
5031.453562074215
 20
3054.191444150053
 30
0.0
 10
5030.774862244169
 20
3054.554438310976
 30
0.0
  0
LINE
  5
14B
330
1F
100
AcDbEntity
  8
0
  6
Continuous
 62
     7
370
    25
100
AcDbLine
 10
5026.005537876168
 20
3055.460303527184
 30
0.0
 11
5026.005537876168
 21
3054.651497202895
 31
0.0
  0
LINE
  5
14C
330
1F
100
AcDbEntity
  8
0
  6
Continuous
 62
     7
370
    25
100
AcDbLine
 10
5018.590368965799
 20
3055.460283545782
 30
0.0
 11
5026.005537876168
 21
3055.460303527184
 31
0.0
  0
SPLINE
  5
14D
330
1F
100
AcDbEntity
  8
0
  6
Continuous
 62
     7
370
    25
100
AcDbSpline
210
0.0
220
0.0
230
1.0
 70
     8
 71
     3
 72
    17
 73
    13
 74
     0
 42
0.00000001
 43
0.0000000001
 40
0.0
 40
0.0
 40
0.0
 40
0.0
 40
0.1249061524968317
 40
0.249678629691866
 40
0.3743660091349086
 40
0.4370653111841988
 40
0.4996827922646732
 40
0.5625511765384524
 40
0.6250869909965208
 40
0.7500288320174932
 40
0.8749615078987204
 40
0.9999999999999998
 40
0.9999999999999998
 40
0.9999999999999998
 40
0.9999999999999998
 10
5018.590358639112
 20
3063.124823304617
 30
0.0
 10
5018.092761591194
 20
3063.068270816155
 30
0.0
 10
5017.098100026657
 20
3062.955226362038
 30
0.0
 10
5015.82122473928
 20
3062.078101869238
 30
0.0
 10
5015.1016978589
 20
3061.015848967884
 30
0.0
 10
5014.807396381155
 20
3060.04581994025
 30
0.0
 10
5014.732825484092
 20
3059.285995816324
 30
0.0
 10
5014.809764037262
 20
3058.527787272358
 30
0.0
 10
5015.106611603811
 20
3057.560079271472
 30
0.0
 10
5015.825499203207
 20
3056.503927342104
 30
0.0
 10
5017.098086278516
 20
3055.630231987306
 30
0.0
 10
5018.092801044575
 20
3055.516949011035
 30
0.0
 10
5018.590368965799
 20
3055.460283545782
 30
0.0
  0
LINE
  5
14E
330
1F
100
AcDbEntity
  8
0
  6
Continuous
 62
     7
370
    25
100
AcDbLine
 10
5022.728029812203
 20
3063.124823304617
 30
0.0
 11
5018.590358639112
 21
3063.124823304617
 31
0.0
  0
LINE
  5
14F
330
1F
100
AcDbEntity
  8
0
  6
Continuous
 62
     7
370
    25
100
AcDbLine
 10
5020.248105831976
 20
3071.909893514398
 30
0.0
 11
5022.728029812203
 21
3063.124823304617
 31
0.0
  0
SPLINE
  5
150
330
1F
100
AcDbEntity
  8
0
  6
Continuous
 62
     7
370
    25
100
AcDbSpline
210
0.0
220
0.0
230
1.0
 70
     8
 71
     3
 72
    15
 73
    11
 74
     0
 42
0.00000001
 43
0.0000000001
 40
0.0
 40
0.0
 40
0.0
 40
0.0
 40
0.124777335624543
 40
0.2499109201881872
 40
0.3748045497466439
 40
0.4994468935588312
 40
0.6245553885321489
 40
0.7496276866824175
 40
0.8742818465247392
 40
1.0
 40
1.0
 40
1.0
 40
1.0
 10
5024.14832180374
 20
3077.063504902053
 30
0.0
 10
5023.838068543673
 20
3077.042898970745
 30
0.0
 10
5023.2166762265
 20
3077.0016282766
 30
0.0
 10
5022.328734679041
 20
3076.670251883294
 30
0.0
 10
5021.536253888899
 20
3076.157597771307
 30
0.0
 10
5020.883406470007
 20
3075.472385818627
 30
0.0
 10
5020.404894065038
 20
3074.657347416936
 30
0.0
 10
5020.131103063529
 20
3073.758821944725
 30
0.0
 10
5020.055262919317
 20
3072.8197592352
 30
0.0
 10
5020.183643004464
 20
3072.214040118552
 30
0.0
 10
5020.248105831976
 20
3071.909893514398
 30
0.0
  0
LINE
  5
151
330
1F
100
AcDbEntity
  8
0
  6
Continuous
 62
     7
370
    25
100
AcDbLine
 10
5032.39641997472
 20
3077.063489312075
 30
0.0
 11
5024.14832180374
 21
3077.063504902053
 31
0.0
  0
SPLINE
  5
152
330
1F
100
AcDbEntity
  8
0
  6
Continuous
 62
     7
370
    25
100
AcDbSpline
210
0.0
220
0.0
230
1.0
 70
     8
 71
     3
 72
    15
 73
    11
 74
     0
 42
0.00000001
 43
0.0000000001
 40
0.0
 40
0.0
 40
0.0
 40
0.0
 40
0.1248092052884188
 40
0.2500200305025023
 40
0.3748296300498509
 40
0.4996557033763129
 40
0.6248576448480098
 40
0.749596621347132
 40
0.8744401508654203
 40
1.0
 40
1.0
 40
1.0
 40
1.0
 10
5036.115911407779
 20
3072.30838003317
 30
0.0
 10
5036.167103065192
 20
3072.593697824797
 30
0.0
 10
5036.269651108171
 20
3073.165251523906
 30
0.0
 10
5036.174635610198
 20
3074.035493076904
 30
0.0
 10
5035.901560688769
 20
3074.86074351148
 30
0.0
 10
5035.447006730123
 20
3075.604177276402
 30
0.0
 10
5034.837430740759
 20
3076.228745704579
 30
0.0
 10
5034.101074414102
 20
3076.697888768261
 30
0.0
 10
5033.274135907491
 20
3077.005014176066
 30
0.0
 10
5032.689549387269
 20
3077.043960462675
 30
0.0
 10
5032.39641997472
 20
3077.063489312075
 30
0.0
  0
LINE
  5
153
330
1F
100
AcDbEntity
  8
0
  6
Continuous
 62
     7
370
    25
100
AcDbLine
 10
5033.837395108159
 20
3063.124822702188
 30
0.0
 11
5036.115911407779
 21
3072.30838003317
 31
0.0
  0
LINE
  5
154
330
1F
100
AcDbEntity
  8
0
  6
Continuous
 62
     7
370
    25
100
AcDbLine
 10
5037.383956495702
 20
3063.124828719411
 30
0.0
 11
5033.837395108159
 21
3063.124822702188
 31
0.0
  0
SPLINE
  5
155
330
1F
100
AcDbEntity
  8
0
  6
Continuous
 62
     7
370
    25
100
AcDbSpline
210
0.0
220
0.0
230
1.0
 70
     8
 71
     3
 72
    15
 73
    11
 74
     0
 42
0.00000001
 43
0.0000000001
 40
0.0
 40
0.0
 40
0.0
 40
0.0
 40
0.125056134112711
 40
0.2500003936702539
 40
0.3748900573607811
 40
0.4997798413595641
 40
0.6247233892275617
 40
0.749774928998996
 40
0.874836060325196
 40
1.0
 40
1.0
 40
1.0
 40
1.0
 10
5037.383957304981
 20
3055.460305499831
 30
0.0
 10
5037.886675237746
 20
3055.517013641031
 30
0.0
 10
5038.891661374474
 20
3055.63037919263
 30
0.0
 10
5040.170216552062
 20
3056.516343254998
 30
0.0
 10
5041.024330364907
 20
3057.783461842111
 30
0.0
 10
5041.324718376571
 20
3059.290834038112
 30
0.0
 10
5041.025604357432
 20
3060.798909646326
 30
0.0
 10
5040.171886665429
 20
3062.0673018357
 30
0.0
 10
5038.892864024667
 20
3062.954450182813
 30
0.0
 10
5037.887063420942
 20
3063.068020319937
 30
0.0
 10
5037.383956495702
 20
3063.124828719411
 30
0.0
  0
LINE
  5
156
330
1F
100
AcDbEntity
  8
0
  6
Continuous
 62
     7
370
    25
100
AcDbLine
 10
5030.774862244169
 20
3055.460305499831
 30
0.0
 11
5037.383957304981
 21
3055.460305499831
 31
0.0
  0
SPLINE
  5
157
330
1F
100
AcDbEntity
  8
0
  6
Continuous
 62
     7
370
    25
100
AcDbSpline
210
0.0
220
0.0
230
1.0
 70
     8
 71
     3
 72
    15
 73
    11
 74
     0
 42
0.00000001
 43
0.0000000001
 40
0.0
 40
0.0
 40
0.0
 40
0.0
 40
0.1250110191706796
 40
0.2499923088620022
 40
0.3749481991945386
 40
0.4998837854148283
 40
0.6248043937384735
 40
0.7497155009843443
 40
0.8746227357774804
 40
1.0
 40
1.0
 40
1.0
 40
1.0
 10
5038.638996889763
 20
3064.362026952799
 30
0.0
 10
5039.235235715274
 20
3064.145643754592
 30
0.0
 10
5040.427571571836
 20
3063.71292881732
 30
0.0
 10
5041.776785898024
 20
3062.313950853421
 30
0.0
 10
5042.5674835614
 20
3060.570301184409
 30
0.0
 10
5042.682593492511
 20
3058.649311826782
 30
0.0
 10
5042.111190638125
 20
3056.811576970958
 30
0.0
 10
5040.926197357554
 20
3055.307741917722
 30
0.0
 10
5039.279579605588
 20
3054.2711004503
 30
0.0
 10
5038.016417576575
 20
3054.137097670726
 30
0.0
 10
5037.383650465189
 20
3054.06997045363
 30
0.0
  0
LINE
  5
158
330
1F
100
AcDbEntity
  8
0
  6
Continuous
 62
     7
370
    25
100
AcDbLine
 10
5037.391441534385
 20
3054.081884238359
 30
0.0
 11
5037.383650465189
 21
3054.06997045363
 31
0.0
  0
SPLINE
  5
159
330
1F
100
AcDbEntity
  8
0
  6
Continuous
 62
     7
370
    25
100
AcDbSpline
210
0.0
220
0.0
230
1.0
 70
     8
 71
     3
 72
    15
 73
    11
 74
     0
 42
0.00000001
 43
0.0000000001
 40
0.0
 40
0.0
 40
0.0
 40
0.0
 40
0.1250110191706787
 40
0.2499923088620055
 40
0.3749481991945383
 40
0.4998837854148277
 40
0.6248043937384736
 40
0.7497155009843413
 40
0.8746227357774804
 40
1.0
 40
1.0
 40
1.0
 40
1.0
 10
5038.641020670638
 20
3064.326657170151
 30
0.0
 10
5039.23452026724
 20
3064.111268075457
 30
0.0
 10
5040.421378317418
 20
3063.680541108801
 30
0.0
 10
5041.764394109184
 20
3062.28799030247
 30
0.0
 10
5042.551459164609
 20
3060.552351275122
 30
0.0
 10
5042.666040259899
 20
3058.640187289737
 30
0.0
 10
5042.097262533479
 20
3056.810895319926
 30
0.0
 10
5040.917713326172
 20
3055.313969156675
 30
0.0
 10
5039.278660433711
 20
3054.282090207479
 30
0.0
 10
5038.02130159932
 20
3054.148703060889
 30
0.0
 10
5037.391441534385
 20
3054.081884238359
 30
0.0
  0
LINE
  5
15A
330
1F
100
AcDbEntity
  8
0
  6
Continuous
 62
     7
370
    25
100
AcDbLine
 10
5038.641020670638
 20
3064.326657170151
 30
0.0
 11
5038.638996889763
 21
3064.362026952799
 31
0.0
  0
LINE
  5
15B
330
1F
100
AcDbEntity
  8
0
  6
Continuous
 62
     7
370
    25
100
AcDbLine
 10
5037.383650465189
 20
3054.06997045363
 30
0.0
 11
5037.055767783778
 21
3054.06997045363
 31
0.0
  0
LINE
  5
15C
330
1F
100
AcDbEntity
  8
0
  6
Continuous
 62
     7
370
    25
100
AcDbLine
 10
5037.461321579248
 20
3067.848924518426
 30
0.0
 11
5038.638996889763
 21
3064.362026952799
 31
0.0
  0
SPLINE
  5
15D
330
1F
100
AcDbEntity
  8
0
  6
Continuous
 62
     7
370
    25
100
AcDbSpline
210
0.0
220
0.0
230
1.0
 70
     8
 71
     3
 72
    15
 73
    11
 74
     0
 42
0.00000001
 43
0.0000000001
 40
0.0
 40
0.0
 40
0.0
 40
0.0
 40
0.1251138268299337
 40
0.2501265539733813
 40
0.3750873343716292
 40
0.5000391562833919
 40
0.6250183215381498
 40
0.7500483412678724
 40
0.8751416046849518
 40
1.0
 40
1.0
 40
1.0
 40
1.0
 10
5044.611175336177
 20
3070.592568739438
 30
0.0
 10
5044.367593306226
 20
3071.019712482135
 30
0.0
 10
5043.880626075623
 20
3071.873654809044
 30
0.0
 10
5042.60682791294
 20
3072.69362902155
 30
0.0
 10
5041.147728235902
 20
3073.002997799751
 30
0.0
 10
5039.672890012465
 20
3072.736917386981
 30
0.0
 10
5038.407044474432
 20
3071.941365872369
 30
0.0
 10
5037.540543882897
 20
3070.737778123508
 30
0.0
 10
5037.148089297084
 20
3069.285295790258
 30
0.0
 10
5037.356976245687
 20
3068.327414916805
 30
0.0
 10
5037.461321579248
 20
3067.848924518426
 30
0.0
  0
LINE
  5
15E
330
1F
100
AcDbEntity
  8
0
  6
Continuous
 62
     7
370
    25
100
AcDbLine
 10
5047.252231138205
 20
3064.467465448953
 30
0.0
 11
5044.611175336177
 21
3070.592568739438
 31
0.0
  0
LINE
  5
15F
330
1F
100
AcDbEntity
  8
0
  6
Continuous
 62
     7
370
    25
100
AcDbLine
 10
5048.938390060178
 20
3069.946845657219
 30
0.0
 11
5047.252231138205
 21
3064.467465448953
 31
0.0
  0
SPLINE
  5
160
330
1F
100
AcDbEntity
  8
0
  6
Continuous
 62
     7
370
    25
100
AcDbSpline
210
0.0
220
0.0
230
1.0
 70
     8
 71
     3
 72
    16
 73
    12
 74
     0
 42
0.00000001
 43
0.0000000001
 40
0.0
 40
0.0
 40
0.0
 40
0.0
 40
0.1250073556817593
 40
0.2498629362156449
 40
0.3124759187237218
 40
0.3752928066555859
 40
0.5001279860581298
 40
0.6250716977549159
 40
0.750136573061155
 40
0.8751207033277477
 40
1.0
 40
1.0
 40
1.0
 40
1.0
 10
5056.263923100398
 20
3067.692525609701
 30
0.0
 10
5056.35781097032
 20
3068.188371102734
 30
0.0
 10
5056.545472718109
 20
3069.179460068041
 30
0.0
 10
5056.147349135751
 20
3070.425070709646
 30
0.0
 10
5055.590321834298
 20
3071.266787661147
 30
0.0
 10
5054.874807702468
 20
3071.984805525766
 30
0.0
 10
5053.735959843862
 20
3072.592879289942
 30
0.0
 10
5052.203662323865
 20
3072.738302008738
 30
0.0
 10
5050.750559861639
 20
3072.287450042586
 30
0.0
 10
5049.540954880331
 20
3071.329917694333
 30
0.0
 10
5049.139188811426
 20
3070.407740698962
 30
0.0
 10
5048.938390060178
 20
3069.946845657219
 30
0.0
  0
LINE
  5
161
330
1F
100
AcDbEntity
  8
0
  6
Continuous
 62
     7
370
    25
100
AcDbLine
 10
5052.910384095794
 20
3056.794912044234
 30
0.0
 11
5056.263923100398
 21
3067.692525609701
 31
0.0
  0
LINE
  5
162
330
1F
100
AcDbEntity
  8
0
  6
Continuous
 62
     7
370
    25
100
AcDbLine
 10
5057.402532552897
 20
3056.794912044234
 30
0.0
 11
5052.910384095794
 21
3056.794912044234
 31
0.0
  0
SPLINE
  5
163
330
1F
100
AcDbEntity
  8
0
  6
Continuous
 62
     7
370
    25
100
AcDbSpline
210
0.0
220
0.0
230
1.0
 70
     8
 71
     3
 72
    16
 73
    12
 74
     0
 42
0.00000001
 43
0.0000000001
 40
0.0
 40
0.0
 40
0.0
 40
0.0
 40
0.12498388347786
 40
0.2498329083229548
 40
0.3746047917904272
 40
0.4373701836425754
 40
0.5000086427398883
 40
0.6248736735557246
 40
0.7498929506168209
 40
0.8748924664021854
 40
1.0
 40
1.0
 40
1.0
 40
1.0
 10
5057.402532552897
 20
3049.218862628756
 30
0.0
 10
5057.895435795854
 20
3049.275008483667
 30
0.0
 10
5058.880710435138
 20
3049.387239611653
 30
0.0
 10
5060.143733181274
 20
3050.257395178333
 30
0.0
 10
5060.853188922596
 20
3051.308145137417
 30
0.0
 10
5061.142422124155
 20
3052.266380876353
 30
0.0
 10
5061.239811489424
 20
3053.26127829022
 30
0.0
 10
5060.987342859653
 20
3054.51341924588
 30
0.0
 10
5060.137656539385
 20
3055.760191833536
 30
0.0
 10
5058.880170060916
 20
3056.626412595853
 30
0.0
 10
5057.895220184362
 20
3056.738729392078
 30
0.0
 10
5057.402532552897
 20
3056.794912044234
 30
0.0
  0
LINE
  5
164
330
1F
100
AcDbEntity
  8
0
  6
Continuous
 62
     7
370
    25
100
AcDbLine
 10
5050.502755267391
 20
3049.218862628756
 30
0.0
 11
5057.402532552897
 21
3049.218862628756
 31
0.0
  0
LINE
  5
165
330
1F
100
AcDbEntity
  8
0
  6
Continuous
 62
     7
370
    25
100
AcDbLine
 10
5050.502755267391
 20
3048.405984834162
 30
0.0
 11
5050.502755267392
 21
3049.218862628756
 31
0.0
  0
SPLINE
  5
166
330
1F
100
AcDbEntity
  8
0
  6
Continuous
 62
     7
370
    25
100
AcDbSpline
210
0.0
220
0.0
230
1.0
 70
     8
 71
     3
 72
    23
 73
    19
 74
     0
 42
0.00000001
 43
0.0000000001
 40
0.0
 40
0.0
 40
0.0
 40
0.0
 40
0.0625068568156239
 40
0.1250136408172716
 40
0.187512397406941
 40
0.249992071117675
 40
0.3124764642983226
 40
0.3749720143701908
 40
0.437478334764521
 40
0.4999928760679668
 40
0.5625133198497156
 40
0.6250393677120769
 40
0.6875717406509861
 40
0.7501097323654563
 40
0.8126495131713907
 40
0.8751837144314508
 40
0.9376956387521964
 40
1.0
 40
1.0
 40
1.0
 40
1.0
 10
5042.703674820134
 20
3048.121758804795
 30
0.0
 10
5042.198944943512
 20
3047.641418685804
 30
0.0
 10
5041.189485778228
 20
3046.680739007366
 30
0.0
 10
5040.339166729765
 20
3044.740655231383
 30
0.0
 10
5040.092662273374
 20
3042.669194114099
 30
0.0
 10
5040.504071548126
 20
3040.620908870972
 30
0.0
 10
5041.520319292965
 20
3038.801921315128
 30
0.0
 10
5043.048252909501
 20
3037.380398309983
 30
0.0
 10
5044.944850783341
 20
3036.495229496477
 30
0.0
 10
5047.029975052446
 20
3036.237736145992
 30
0.0
 10
5049.098752869105
 20
3036.640244690235
 30
0.0
 10
5050.942580178421
 20
3037.6666271736
 30
0.0
 10
5052.375032529779
 20
3039.21355665302
 30
0.0
 10
5053.254445309332
 20
3041.121944097947
 30
0.0
 10
5053.50224961494
 20
3043.203925333678
 30
0.0
 10
5053.09209799137
 20
3045.244260199128
 30
0.0
 10
5052.101377141304
 20
3047.095519538419
 30
0.0
 10
5051.035038136362
 20
3047.969647612279
 30
0.0
 10
5050.502755267392
 20
3048.405984834162
 30
0.0
  0
LINE
  5
167
330
1F
100
AcDbEntity
  8
0
  6
Continuous
 62
     7
370
    25
100
AcDbLine
 10
5042.703673823706
 20
3049.446802166337
 30
0.0
 11
5042.703674820135
 21
3048.121758804795
 31
0.0
  0
LINE
  5
168
330
1F
100
AcDbEntity
  8
0
  6
Continuous
 62
     7
370
    25
100
AcDbLine
 10
5037.4379030751
 20
3049.446813353777
 30
0.0
 11
5042.703673823706
 21
3049.446802166337
 31
0.0
  0
SPLINE
  5
169
330
1F
100
AcDbEntity
  8
0
  6
Continuous
 62
     7
370
    25
100
AcDbSpline
210
0.0
220
0.0
230
1.0
 70
     8
 71
     3
 72
    11
 73
     7
 74
     0
 42
0.00000001
 43
0.0000000001
 40
0.0
 40
0.0
 40
0.0
 40
0.0
 40
0.2496924360992048
 40
0.4994219562697155
 40
0.7491905203631222
 40
1.0
 40
1.0
 40
1.0
 40
1.0
 10
5035.722387314431
 20
3050.716384654057
 30
0.0
 10
5035.794783033815
 20
3050.539520116215
 30
0.0
 10
5035.939585224728
 20
3050.185764772787
 30
0.0
 10
5036.353399526988
 20
3049.777970619572
 30
0.0
 10
5036.864762411057
 20
3049.49993898433
 30
0.0
 10
5037.24659152515
 20
3049.464546429374
 30
0.0
 10
5037.4379030751
 20
3049.446813353777
 30
0.0
  0
LINE
  5
16A
330
1F
100
AcDbEntity
  8
0
  6
Continuous
 62
     7
370
    25
100
AcDbLine
 10
5035.410951396426
 20
3051.560276295853
 30
0.0
 11
5035.722387314431
 21
3050.716384654057
 31
0.0
  0
SPLINE
  5
16B
330
1F
100
AcDbEntity
  8
0
  6
Continuous
 62
     7
370
    25
100
AcDbSpline
210
0.0
220
0.0
230
1.0
 70
     8
 71
     3
 72
    15
 73
    11
 74
     0
 42
0.00000001
 43
0.0000000001
 40
0.0
 40
0.0
 40
0.0
 40
0.0
 40
0.1248095488850664
 40
0.249940090870956
 40
0.3750289785021083
 40
0.4997493000649097
 40
0.6246701349542848
 40
0.7498228612261939
 40
0.8748537926432963
 40
1.0
 40
1.0
 40
1.0
 40
1.0
 10
5037.055767783778
 20
3054.06997045363
 30
0.0
 10
5036.907836944283
 20
3054.059347800456
 30
0.0
 10
5036.611594807397
 20
3054.038075174096
 30
0.0
 10
5036.194319238935
 20
3053.869283632562
 30
0.0
 10
5035.829815215697
 20
3053.611129840953
 30
0.0
 10
5035.540421797295
 20
3053.269834555751
 30
0.0
 10
5035.342702447634
 20
3052.868346313983
 30
0.0
 10
5035.251278729615
 20
3052.431031904801
 30
0.0
 10
5035.262823599978
 20
3051.980836343985
 30
0.0
 10
5035.361560299068
 20
3051.700506035175
 30
0.0
 10
5035.410951396426
 20
3051.560276295853
 30
0.0
  0
LINE
  5
16C
330
1F
100
AcDbEntity
  8
0
  6
Continuous
 62
     7
370
    25
100
AcDbLine
 10
5037.065065205263
 20
3054.081884238359
 30
0.0
 11
5037.055767783778
 21
3054.06997045363
 31
0.0
  0
LINE
  5
16D
330
1F
100
AcDbEntity
  8
0
  6
Continuous
 62
     7
370
    25
100
AcDbLine
 10
5037.391441534385
 20
3054.081884238359
 30
0.0
 11
5037.065065205263
 21
3054.081884238359
 31
0.0
  0
SPLINE
  5
16E
330
1F
100
AcDbEntity
  8
0
  6
Continuous
 62
     7
370
    25
100
AcDbSpline
210
0.0
220
0.0
230
1.0
 70
     8
 71
     3
 72
    11
 73
     7
 74
     0
 42
0.00000001
 43
0.0000000001
 40
0.0
 40
0.0
 40
0.0
 40
0.0
 40
0.3262770526530796
 40
0.6533932452901934
 40
0.9804005451365796
 40
1.0
 40
1.0
 40
1.0
 40
1.0
 10
5037.065065205263
 20
3054.081884238359
 30
0.0
 10
5036.917352837765
 20
3054.071740102548
 30
0.0
 10
5036.62154820675
 20
3054.051425741594
 30
0.0
 10
5036.213128694657
 20
3053.87694363722
 30
0.0
 10
5035.945625689967
 20
3053.717191404436
 30
0.0
 10
5035.845396687536
 20
3053.597640697953
 30
0.0
 10
5035.839729072055
 20
3053.590880504611
 30
0.0
  0
LINE
  5
16F
330
1F
100
AcDbEntity
  8
0
  6
Continuous
 62
     7
370
    25
100
AcDbLine
 10
5030.813015280689
 20
3054.564126362824
 30
0.0
 11
5030.774862244169
 21
3054.554438310976
 31
0.0
  0
SPLINE
  5
170
330
1F
100
AcDbEntity
  8
0
  6
Continuous
 62
     7
370
    25
100
AcDbSpline
210
0.0
220
0.0
230
1.0
 70
     8
 71
     3
 72
    13
 73
     9
 74
     0
 42
0.00000001
 43
0.0000000001
 40
0.0
 40
0.0
 40
0.0
 40
0.0
 40
0.0216458925438836
 40
0.2363524566586829
 40
0.4494753031935081
 40
0.6609847178210153
 40
0.8714214964836848
 40
0.9999999999999998
 40
0.9999999999999998
 40
0.9999999999999998
 40
0.9999999999999998
 10
5034.315485046893
 20
3045.897834024307
 30
0.0
 10
5034.35503606933
 20
3045.961215982201
 30
0.0
 10
5034.786895430039
 20
3046.653286379655
 30
0.0
 10
5034.965439853983
 20
3048.280672925733
 30
0.0
 10
5034.714849124855
 20
3050.490171567141
 30
0.0
 10
5033.673862447688
 20
3052.488523065261
 30
0.0
 10
5032.276093779297
 20
3053.856033415137
 30
0.0
 10
5031.215331243032
 20
3054.369415623825
 30
0.0
 10
5030.813015280689
 20
3054.564126362824
 30
0.0
  0
LINE
  5
171
330
1F
100
AcDbEntity
  8
0
  6
Continuous
 62
     7
370
    25
100
AcDbLine
 10
5037.468755813311
 20
3067.797535298263
 30
0.0
 11
5038.641020670638
 21
3064.326657170151
 31
0.0
  0
LINE
  5
172
330
1F
100
AcDbEntity
  8
0
  6
Continuous
 62
     7
370
    25
100
AcDbLine
 10
5037.468755813311
 20
3067.797535298263
 30
0.0
 11
5037.461321579248
 21
3067.848924518426
 31
0.0
  0
LINE
  5
173
330
1F
100
AcDbEntity
  8
0
  6
Continuous
 62
     7
370
    25
100
AcDbLine
 10
5042.687024736093
 20
3048.160999748708
 30
0.0
 11
5042.703674820135
 21
3048.121758804795
 31
0.0
  0
LINE
  5
174
330
1F
100
AcDbEntity
  8
0
  6
Continuous
 62
     7
370
    25
100
AcDbLine
 10
5042.687023744241
 20
3049.479955621605
 30
0.0
 11
5042.687024736093
 21
3048.160999748708
 31
0.0
  0
LINE
  5
175
330
1F
100
AcDbEntity
  8
0
  6
Continuous
 62
     7
370
    25
100
AcDbLine
 10
5036.129526699291
 20
3072.236503268529
 30
0.0
 11
5036.115911407779
 21
3072.30838003317
 31
0.0
  0
LINE
  5
176
330
1F
100
AcDbEntity
  8
0
  6
Continuous
 62
     7
370
    25
100
AcDbLine
 10
5033.861478315289
 20
3063.095136859436
 30
0.0
 11
5036.129526699291
 21
3072.236503268529
 31
0.0
  0
LINE
  5
177
330
1F
100
AcDbEntity
  8
0
  6
Continuous
 62
     7
370
    25
100
AcDbLine
 10
5030.813015280689
 20
3054.564126362824
 30
0.0
 11
5030.813015280691
 21
3055.465831834118
 31
0.0
  0
SPLINE
  5
178
330
1F
100
AcDbEntity
  8
0
  6
Continuous
 62
     7
370
    25
100
AcDbSpline
210
0.0
220
0.0
230
1.0
 70
     8
 71
     3
 72
    11
 73
     7
 74
     0
 42
0.00000001
 43
0.0000000001
 40
0.0
 40
0.0
 40
0.0
 40
0.0
 40
0.3211625782638486
 40
0.6412414016254493
 40
0.9612127248738266
 40
1.0
 40
1.0
 40
1.0
 40
1.0
 10
5042.68702473609
 20
3048.160999748708
 30
0.0
 10
5042.179698870318
 20
3047.680532291242
 30
0.0
 10
5041.166759096926
 20
3046.721218701452
 30
0.0
 10
5040.370905617173
 20
3044.794532752213
 30
0.0
 10
5040.066529411626
 20
3043.315938884678
 30
0.0
 10
5040.228750313742
 20
3042.568082312455
 30
0.0
 10
5040.246288866936
 20
3042.487227613074
 30
0.0
  0
LINE
  5
179
330
1F
100
AcDbEntity
  8
0
  6
Continuous
 62
     7
370
    25
100
AcDbLine
 10
5050.592544177724
 20
3048.310600468708
 30
0.0
 11
5050.450274798446
 21
3048.443919992334
 31
0.0
  0
LINE
  5
17A
330
1F
100
AcDbEntity
  8
0
  6
Continuous
 62
     7
370
    25
100
AcDbLine
 10
5049.52334789504
 20
3071.061141121827
 30
0.0
 11
5048.893096567682
 21
3069.88581820824
 31
0.0
  0
LINE
  5
17B
330
1F
100
AcDbEntity
  8
0
  6
Continuous
 62
     7
370
    25
100
AcDbLine
 10
5048.893096567682
 20
3069.88581820824
 30
0.0
 11
5047.214684164493
 21
3064.431611262799
 31
0.0
  0
LINE
  5
17C
330
1F
100
AcDbEntity
  8
0
  6
Continuous
 62
     7
370
    25
100
AcDbLine
 10
5037.378548500178
 20
3068.460614458884
 30
0.0
 11
5037.468755813311
 21
3067.797535298263
 31
0.0
  0
LINE
  5
17D
330
1F
100
AcDbEntity
  8
0
  6
Continuous
 62
     7
370
    25
100
AcDbLine
 10
5036.129526699291
 20
3072.236503268529
 30
0.0
 11
5036.159228866641
 21
3072.639620047466
 31
0.0
  0
LINE
  5
17E
330
1F
100
AcDbEntity
  8
0
  6
Continuous
 62
     7
370
    25
100
AcDbLine
 10
5012.823201078938
 20
3070.941408911033
 30
0.0
 11
5012.795788152441
 21
3070.076871062034
 31
0.0
  0
SPLINE
  5
17F
330
1F
100
AcDbEntity
  8
0
  6
Continuous
 62
     7
370
    25
100
AcDbSpline
210
0.0
220
0.0
230
1.0
 70
     8
 71
     3
 72
    11
 73
     7
 74
     0
 42
0.00000001
 43
0.0000000001
 40
0.0
 40
0.0
 40
0.0
 40
0.0
 40
0.3359430882906312
 40
0.500756625068121
 40
0.8367255500170946
 40
1.0
 40
1.0
 40
1.0
 40
1.0
 10
5012.111636124188
 20
3076.728355822464
 30
0.0
 10
5012.260982501914
 20
3076.096839136492
 30
0.0
 10
5012.483598149278
 20
3075.155500631953
 30
0.0
 10
5012.713460440275
 20
3073.542280698623
 30
0.0
 10
5012.821466001329
 20
3072.245123985757
 30
0.0
 10
5012.822773422506
 20
3071.262698846771
 30
0.0
 10
5012.823201006494
 20
3070.941402797046
 30
0.0
  0
LINE
  5
180
330
1F
100
AcDbEntity
  8
0
  6
Continuous
 62
     7
370
    25
100
AcDbLine
 10
5010.789680015795
 20
3082.361455210256
 30
0.0
 11
5012.111636124188
 21
3076.728355822464
 31
0.0
  0
LINE
  5
181
330
1F
100
AcDbEntity
  8
0
  6
Continuous
 62
     7
370
    25
100
AcDbLine
 10
5016.59749264288
 20
3081.571620816148
 30
0.0
 11
5010.789680015795
 21
3082.361455210256
 31
0.0
  0
LINE
  5
182
330
1F
100
AcDbEntity
  8
0
  6
Continuous
 62
     7
370
    25
100
AcDbLine
 10
5021.277181355006
 20
3081.332894479862
 30
0.0
 11
5016.59749264288
 21
3081.571620816148
 31
0.0
  0
LINE
  5
183
330
1F
100
AcDbEntity
  8
0
  6
Continuous
 62
     7
370
    25
100
AcDbLine
 10
5024.795369404536
 20
3081.821851339533
 30
0.0
 11
5021.277181355006
 21
3081.332894479862
 31
0.0
  0
LINE
  5
184
330
1F
100
AcDbEntity
  8
0
  6
Continuous
 62
     7
370
    25
100
AcDbLine
 10
5028.201776323268
 20
3082.904864252103
 30
0.0
 11
5024.795369404536
 21
3081.821851339533
 31
0.0
  0
ARC
  5
185
330
1F
100
AcDbEntity
  8
0
  6
Continuous
 62
     7
370
    25
100
AcDbCircle
 10
5039.079506526821
 20
3056.663204263035
 30
0.0
 40
28.406860674196
100
AcDbArc
 50
162.8247283675764
 51
112.5150542182061
  0
LINE
  5
186
330
1F
100
AcDbEntity
  8
0
  6
Continuous
 62
     7
370
    25
100
AcDbLine
 10
5012.754516205819
 20
3069.451724697165
 30
0.0
 11
5011.939424289092
 21
3065.051628995518
 31
0.0
  0
LINE
  5
187
330
1F
100
AcDbEntity
  8
0
  6
Continuous
 62
     7
370
    25
100
AcDbLine
 10
5048.893096567682
 20
3069.88581820824
 30
0.0
 11
5048.938390060178
 21
3069.946845657219
 31
0.0
  0
ARC
  5
188
330
1F
100
AcDbEntity
  8
0
  6
Continuous
 62
     7
370
    25
100
AcDbCircle
 10
5039.079506526821
 20
3056.663204263035
 30
0.0
 40
28.5379692619231
100
AcDbArc
 50
162.8247283675772
 51
112.5150542182064
  0
LINE
  5
189
330
1F
100
AcDbEntity
  8
0
  6
Continuous
 62
     7
370
    25
100
AcDbLine
 10
5011.939424289092
 20
3065.051628995518
 30
0.0
 11
5011.814162371072
 21
3065.090344801975
 31
0.0
  0
LINE
  5
18A
330
1F
100
AcDbEntity
  8
0
  6
Continuous
 62
     7
370
    25
100
AcDbLine
 10
5028.201776323268
 20
3082.904864252103
 30
0.0
 11
5028.151571414635
 21
3083.025979605898
 31
0.0
  0
SPLINE
  5
18B
330
1F
100
AcDbEntity
  8
0
  6
Continuous
 62
     7
370
    25
100
AcDbSpline
210
0.0
220
0.0
230
1.0
 70
     8
 71
     3
 72
    11
 73
     7
 74
     0
 42
0.00000001
 43
0.0000000001
 40
0.0
 40
0.0
 40
0.0
 40
0.0
 40
0.249745553295915
 40
0.4987284705457094
 40
0.7495446083600031
 40
1.0
 40
1.0
 40
1.0
 40
1.0
 10
5011.987169030022
 20
3076.820964214278
 30
0.0
 10
5012.198370046377
 20
3075.870606751497
 30
0.0
 10
5012.620127144646
 20
3073.972793887046
 30
0.0
 10
5012.760476160626
 20
3071.003220480684
 30
0.0
 10
5012.549436840046
 20
3068.011617548406
 30
0.0
 10
5012.059136243793
 20
3066.063635087667
 30
0.0
 10
5011.814162371072
 20
3065.090344801975
 30
0.0
  0
LINE
  5
18C
330
1F
100
AcDbEntity
  8
0
  6
Continuous
 62
     7
370
    25
100
AcDbLine
 10
5012.111636124188
 20
3076.728355822464
 30
0.0
 11
5011.987169030022
 21
3076.820964214278
 31
0.0
  0
SPLINE
  5
18D
330
1F
100
AcDbEntity
  8
0
  6
Continuous
 62
     7
370
    25
100
AcDbSpline
210
0.0
220
0.0
230
1.0
 70
     8
 71
     3
 72
     9
 73
     5
 74
     0
 42
0.00000001
 43
0.0000000001
 40
0.0
 40
0.0
 40
0.0
 40
0.0
 40
0.4999999805618144
 40
1.0
 40
1.0
 40
1.0
 40
1.0
 10
5028.151571414635
 20
3083.025979605898
 30
0.0
 10
5027.020219881022
 20
3082.613575972941
 30
0.0
 10
5024.757516725832
 20
3081.78876867496
 30
0.0
 10
5022.382516790915
 20
3081.560759286979
 30
0.0
 10
5021.19501677729
 20
3081.446754588555
 30
0.0
  0
LINE
  5
18E
330
1F
100
AcDbEntity
  8
0
  6
Continuous
 62
     7
370
    25
100
AcDbLine
 10
5021.277181355006
 20
3081.332894479862
 30
0.0
 11
5021.19501677729
 21
3081.446754588555
 31
0.0
  0
ARC
  5
18F
330
1F
100
AcDbEntity
  8
0
  6
Continuous
 62
     7
370
    25
100
AcDbCircle
 10
5039.079506526821
 20
3056.663204263035
 30
0.0
 40
32.00992003115345
100
AcDbArc
 50
162.8704541132139
 51
112.5150542182082
  0
SPLINE
  5
190
330
1F
100
AcDbEntity
  8
0
  6
Continuous
 62
     7
370
    25
100
AcDbSpline
210
0.0
220
0.0
230
1.0
 70
     8
 71
     3
 72
    11
 73
     7
 74
     0
 42
0.00000001
 43
0.0000000001
 40
0.0
 40
0.0
 40
0.0
 40
0.0
 40
0.2497498727961989
 40
0.4987517504754253
 40
0.7495590361033316
 40
1.0
 40
1.0
 40
1.0
 40
1.0
 10
5008.61781985903
 20
3075.981826943948
 30
0.0
 10
5008.797670148027
 20
3075.181186985599
 30
0.0
 10
5009.156832078546
 20
3073.582304967134
 30
0.0
 10
5009.280088980681
 20
3071.078789875652
 30
0.0
 10
5009.106420496823
 20
3068.555714487593
 30
0.0
 10
5008.695044115497
 20
3066.912295981961
 30
0.0
 10
5008.489506245666
 20
3066.091187249857
 30
0.0
  0
LINE
  5
191
330
1F
100
AcDbEntity
  8
0
  6
Continuous
 62
     7
370
    25
100
AcDbLine
 10
5006.721650505909
 20
3084.061755130973
 30
0.0
 11
5008.61781985903
 21
3075.981826943948
 31
0.0
  0
SPLINE
  5
192
330
1F
100
AcDbEntity
  8
0
  6
Continuous
 62
     7
370
    25
100
AcDbSpline
210
0.0
220
0.0
230
1.0
 70
     8
 71
     3
 72
    15
 73
    11
 74
     0
 42
0.00000001
 43
0.0000000001
 40
0.0
 40
0.0
 40
0.0
 40
0.0
 40
0.1248527834764166
 40
0.2499643396003315
 40
0.3748917915147492
 40
0.4995040890512765
 40
0.6245288097955893
 40
0.7497414944613399
 40
0.8749676894783505
 40
1.0
 40
1.0
 40
1.0
 40
1.0
 10
5008.709775144894
 20
3086.249072830591
 30
0.0
 10
5008.569303186035
 20
3086.258623354948
 30
0.0
 10
5008.288068123023
 20
3086.277744198291
 30
0.0
 10
5007.862604829457
 20
3086.177931558609
 30
0.0
 10
5007.46713370487
 20
3085.982368628192
 30
0.0
 10
5007.127949488978
 20
3085.691456256515
 30
0.0
 10
5006.869827184772
 20
3085.326201142557
 30
0.0
 10
5006.712077478228
 20
3084.913099673333
 30
0.0
 10
5006.652914680477
 20
3084.479378192742
 30
0.0
 10
5006.698750400973
 20
3084.200890900103
 30
0.0
 10
5006.721650505909
 20
3084.061755130973
 30
0.0
  0
LINE
  5
193
330
1F
100
AcDbEntity
  8
0
  6
Continuous
 62
     7
370
    25
100
AcDbLine
 10
5016.961591337449
 20
3085.126865786181
 30
0.0
 11
5008.709775144894
 21
3086.249072830591
 31
0.0
  0
LINE
  5
194
330
1F
100
AcDbEntity
  8
0
  6
Continuous
 62
     7
370
    25
100
AcDbLine
 10
5021.044089069704
 20
3084.915631933888
 30
0.0
 11
5016.961591337449
 21
3085.126865786181
 31
0.0
  0
SPLINE
  5
195
330
1F
100
AcDbEntity
  8
0
  6
Continuous
 62
     7
370
    25
100
AcDbSpline
210
0.0
220
0.0
230
1.0
 70
     8
 71
     3
 72
     9
 73
     5
 74
     0
 42
0.00000001
 43
0.0000000001
 40
0.0
 40
0.0
 40
0.0
 40
0.0
 40
0.4999999767848635
 40
0.9999999999999998
 40
0.9999999999999998
 40
0.9999999999999998
 40
0.9999999999999998
 10
5026.822070623228
 20
3086.233294649609
 30
0.0
 10
5025.882325397458
 20
3085.890467210333
 30
0.0
 10
5024.002834858652
 20
3085.204812299946
 30
0.0
 10
5022.030337696548
 20
3085.012025392225
 30
0.0
 10
5021.044089069704
 20
3084.915631933888
 30
0.0
  0
LINE
  5
196
330
1F
100
AcDbEntity
  8
0
  6
Continuous
 62
     7
370
    25
100
AcDbLine
 10
5016.493729501878
 20
3081.686582738701
 30
0.0
 11
5010.659111585745
 21
3082.48006252232
 31
0.0
  0
LINE
  5
197
330
1F
100
AcDbEntity
  8
0
  6
Continuous
 62
     7
370
    25
100
AcDbLine
 10
5010.659111585745
 20
3082.48006252232
 30
0.0
 11
5011.987169030022
 21
3076.820964214278
 31
0.0
  0
LINE
  5
198
330
1F
100
AcDbEntity
  8
0
  6
Continuous
 62
     7
370
    25
100
AcDbLine
 10
5021.19501677729
 20
3081.446754588555
 30
0.0
 11
5016.493729501878
 21
3081.686582738701
 31
0.0
  0
LINE
  5
199
330
1F
100
AcDbEntity
  8
0
  6
Continuous
 62
     7
370
    25
100
AcDbLine
 10
5016.59749264288
 20
3081.571620816148
 30
0.0
 11
5016.493729501878
 21
3081.686582738701
 31
0.0
  0
LINE
  5
19A
330
1F
100
AcDbEntity
  8
0
  6
Continuous
 62
     7
370
    25
100
AcDbLine
 10
5010.789680015795
 20
3082.361455210256
 30
0.0
 11
5010.659111585745
 21
3082.48006252232
 31
0.0
  0
LINE
  5
19B
330
1F
100
AcDbEntity
  8
0
  6
Continuous
 62
     7
370
    25
100
AcDbLine
 10
3630.77486224417
 20
3054.554438310976
 30
0.0
 11
3630.77486224417
 21
3055.46030549983
 31
0.0
  0
SPLINE
  5
19C
330
1F
100
AcDbEntity
  8
0
  6
Continuous
 62
     7
370
    25
100
AcDbSpline
210
0.0
220
0.0
230
1.0
 70
     8
 71
     3
 72
    23
 73
    19
 74
     0
 42
0.00000001
 43
0.0000000001
 40
0.0
 40
0.0
 40
0.0
 40
0.0
 40
0.0625003191969383
 40
0.1249992395012215
 40
0.1874915822001336
 40
0.2499816454423837
 40
0.3124735293962524
 40
0.3749692624755315
 40
0.4374687162947467
 40
0.4999702749476305
 40
0.5624712575477951
 40
0.624968495315208
 40
0.6874594909352345
 40
0.7499436725622579
 40
0.8124228766245057
 40
0.8749006420425477
 40
0.9373807521372155
 40
1.0
 40
1.0
 40
1.0
 40
1.0
 10
3626.005537876169
 20
3054.651497202895
 30
0.0
 10
3625.318305550118
 20
3054.319767540523
 30
0.0
 10
3623.943856279764
 20
3053.656315640608
 30
0.0
 10
3622.463335287031
 20
3051.851832720049
 30
0.0
 10
3621.646066851679
 20
3049.694130668318
 30
0.0
 10
3621.618275028627
 20
3047.367992630583
 30
0.0
 10
3622.383458186292
 20
3045.168905694076
 30
0.0
 10
3623.854688892782
 20
3043.360044537348
 30
0.0
 10
3625.851950806927
 20
3042.162888126132
 30
0.0
 10
3628.131201084724
 20
3041.717832072598
 30
0.0
 10
3630.419538224241
 20
3042.071241011008
 30
0.0
 10
3632.449648091436
 20
3043.175884540136
 30
0.0
 10
3633.987125884103
 20
3044.90210685803
 30
0.0
 10
3634.851146284366
 20
3047.049811735927
 30
0.0
 10
3634.936820440036
 20
3049.373879568496
 30
0.0
 10
3634.220133504995
 20
3051.579479548286
 30
0.0
 10
3632.809453687135
 20
3053.466262388476
 30
0.0
 10
3631.453562074215
 20
3054.191444150053
 30
0.0
 10
3630.77486224417
 20
3054.554438310976
 30
0.0
  0
LINE
  5
19D
330
1F
100
AcDbEntity
  8
0
  6
Continuous
 62
     7
370
    25
100
AcDbLine
 10
3626.005537876169
 20
3055.460303527184
 30
0.0
 11
3626.005537876169
 21
3054.651497202895
 31
0.0
  0
LINE
  5
19E
330
1F
100
AcDbEntity
  8
0
  6
Continuous
 62
     7
370
    25
100
AcDbLine
 10
3618.590368965798
 20
3055.460283545782
 30
0.0
 11
3626.005537876169
 21
3055.460303527184
 31
0.0
  0
SPLINE
  5
19F
330
1F
100
AcDbEntity
  8
0
  6
Continuous
 62
     7
370
    25
100
AcDbSpline
210
0.0
220
0.0
230
1.0
 70
     8
 71
     3
 72
    17
 73
    13
 74
     0
 42
0.00000001
 43
0.0000000001
 40
0.0
 40
0.0
 40
0.0
 40
0.0
 40
0.1249061524968317
 40
0.249678629691866
 40
0.3743660091349086
 40
0.4370653111841988
 40
0.4996827922646732
 40
0.5625511765384524
 40
0.6250869909965208
 40
0.7500288320174932
 40
0.8749615078987204
 40
0.9999999999999998
 40
0.9999999999999998
 40
0.9999999999999998
 40
0.9999999999999998
 10
3618.590358639113
 20
3063.124823304617
 30
0.0
 10
3618.092761591194
 20
3063.068270816155
 30
0.0
 10
3617.098100026657
 20
3062.955226362038
 30
0.0
 10
3615.82122473928
 20
3062.078101869238
 30
0.0
 10
3615.101697858899
 20
3061.015848967884
 30
0.0
 10
3614.807396381156
 20
3060.04581994025
 30
0.0
 10
3614.732825484092
 20
3059.285995816324
 30
0.0
 10
3614.809764037262
 20
3058.527787272357
 30
0.0
 10
3615.106611603811
 20
3057.560079271472
 30
0.0
 10
3615.825499203207
 20
3056.503927342103
 30
0.0
 10
3617.098086278517
 20
3055.630231987306
 30
0.0
 10
3618.092801044575
 20
3055.516949011035
 30
0.0
 10
3618.590368965798
 20
3055.460283545782
 30
0.0
  0
LINE
  5
1A0
330
1F
100
AcDbEntity
  8
0
  6
Continuous
 62
     7
370
    25
100
AcDbLine
 10
3622.728029812203
 20
3063.124823304617
 30
0.0
 11
3618.590358639113
 21
3063.124823304617
 31
0.0
  0
LINE
  5
1A1
330
1F
100
AcDbEntity
  8
0
  6
Continuous
 62
     7
370
    25
100
AcDbLine
 10
3620.248105831976
 20
3071.909893514398
 30
0.0
 11
3622.728029812203
 21
3063.124823304617
 31
0.0
  0
SPLINE
  5
1A2
330
1F
100
AcDbEntity
  8
0
  6
Continuous
 62
     7
370
    25
100
AcDbSpline
210
0.0
220
0.0
230
1.0
 70
     8
 71
     3
 72
    15
 73
    11
 74
     0
 42
0.00000001
 43
0.0000000001
 40
0.0
 40
0.0
 40
0.0
 40
0.0
 40
0.124777335624543
 40
0.2499109201881872
 40
0.3748045497466439
 40
0.4994468935588308
 40
0.6245553885321486
 40
0.7496276866824175
 40
0.8742818465247388
 40
1.0
 40
1.0
 40
1.0
 40
1.0
 10
3624.14832180374
 20
3077.063504902053
 30
0.0
 10
3623.838068543675
 20
3077.042898970745
 30
0.0
 10
3623.216676226501
 20
3077.0016282766
 30
0.0
 10
3622.328734679039
 20
3076.670251883293
 30
0.0
 10
3621.536253888899
 20
3076.157597771307
 30
0.0
 10
3620.883406470007
 20
3075.472385818627
 30
0.0
 10
3620.404894065038
 20
3074.657347416936
 30
0.0
 10
3620.131103063528
 20
3073.758821944725
 30
0.0
 10
3620.055262919319
 20
3072.8197592352
 30
0.0
 10
3620.183643004463
 20
3072.214040118551
 30
0.0
 10
3620.248105831976
 20
3071.909893514398
 30
0.0
  0
LINE
  5
1A3
330
1F
100
AcDbEntity
  8
0
  6
Continuous
 62
     7
370
    25
100
AcDbLine
 10
3632.39641997472
 20
3077.063489312074
 30
0.0
 11
3624.14832180374
 21
3077.063504902053
 31
0.0
  0
SPLINE
  5
1A4
330
1F
100
AcDbEntity
  8
0
  6
Continuous
 62
     7
370
    25
100
AcDbSpline
210
0.0
220
0.0
230
1.0
 70
     8
 71
     3
 72
    15
 73
    11
 74
     0
 42
0.00000001
 43
0.0000000001
 40
0.0
 40
0.0
 40
0.0
 40
0.0
 40
0.1248092052884192
 40
0.2500200305025022
 40
0.3748296300498508
 40
0.4996557033763131
 40
0.6248576448480097
 40
0.7495966213471323
 40
0.8744401508654203
 40
0.9999999999999998
 40
0.9999999999999998
 40
0.9999999999999998
 40
0.9999999999999998
 10
3636.115911407778
 20
3072.30838003317
 30
0.0
 10
3636.167103065192
 20
3072.593697824797
 30
0.0
 10
3636.269651108171
 20
3073.165251523906
 30
0.0
 10
3636.174635610198
 20
3074.035493076903
 30
0.0
 10
3635.901560688768
 20
3074.860743511479
 30
0.0
 10
3635.447006730123
 20
3075.604177276402
 30
0.0
 10
3634.837430740759
 20
3076.228745704579
 30
0.0
 10
3634.1010744141
 20
3076.697888768261
 30
0.0
 10
3633.27413590749
 20
3077.005014176066
 30
0.0
 10
3632.68954938727
 20
3077.043960462674
 30
0.0
 10
3632.39641997472
 20
3077.063489312074
 30
0.0
  0
LINE
  5
1A5
330
1F
100
AcDbEntity
  8
0
  6
Continuous
 62
     7
370
    25
100
AcDbLine
 10
3633.837395108159
 20
3063.124822702188
 30
0.0
 11
3636.115911407778
 21
3072.30838003317
 31
0.0
  0
LINE
  5
1A6
330
1F
100
AcDbEntity
  8
0
  6
Continuous
 62
     7
370
    25
100
AcDbLine
 10
3637.383956495703
 20
3063.124828719411
 30
0.0
 11
3633.837395108159
 21
3063.124822702188
 31
0.0
  0
SPLINE
  5
1A7
330
1F
100
AcDbEntity
  8
0
  6
Continuous
 62
     7
370
    25
100
AcDbSpline
210
0.0
220
0.0
230
1.0
 70
     8
 71
     3
 72
    15
 73
    11
 74
     0
 42
0.00000001
 43
0.0000000001
 40
0.0
 40
0.0
 40
0.0
 40
0.0
 40
0.125056134112711
 40
0.2500003936702539
 40
0.3748900573607811
 40
0.4997798413595641
 40
0.6247233892275617
 40
0.749774928998996
 40
0.874836060325196
 40
1.0
 40
1.0
 40
1.0
 40
1.0
 10
3637.383957304981
 20
3055.46030549983
 30
0.0
 10
3637.886675237746
 20
3055.517013641031
 30
0.0
 10
3638.891661374474
 20
3055.63037919263
 30
0.0
 10
3640.170216552063
 20
3056.516343254998
 30
0.0
 10
3641.024330364908
 20
3057.783461842111
 30
0.0
 10
3641.324718376572
 20
3059.290834038111
 30
0.0
 10
3641.025604357432
 20
3060.798909646326
 30
0.0
 10
3640.17188666543
 20
3062.0673018357
 30
0.0
 10
3638.892864024666
 20
3062.954450182813
 30
0.0
 10
3637.887063420943
 20
3063.068020319937
 30
0.0
 10
3637.383956495703
 20
3063.124828719411
 30
0.0
  0
LINE
  5
1A8
330
1F
100
AcDbEntity
  8
0
  6
Continuous
 62
     7
370
    25
100
AcDbLine
 10
3630.77486224417
 20
3055.46030549983
 30
0.0
 11
3637.383957304981
 21
3055.46030549983
 31
0.0
  0
SPLINE
  5
1A9
330
1F
100
AcDbEntity
  8
0
  6
Continuous
 62
     7
370
    25
100
AcDbSpline
210
0.0
220
0.0
230
1.0
 70
     8
 71
     3
 72
    15
 73
    11
 74
     0
 42
0.00000001
 43
0.0000000001
 40
0.0
 40
0.0
 40
0.0
 40
0.0
 40
0.1250110191706796
 40
0.2499923088620022
 40
0.3749481991945386
 40
0.4998837854148283
 40
0.6248043937384735
 40
0.7497155009843443
 40
0.8746227357774804
 40
1.0
 40
1.0
 40
1.0
 40
1.0
 10
3638.638996889762
 20
3064.362026952798
 30
0.0
 10
3639.235235715274
 20
3064.145643754591
 30
0.0
 10
3640.427571571836
 20
3063.712928817319
 30
0.0
 10
3641.776785898025
 20
3062.31395085342
 30
0.0
 10
3642.567483561399
 20
3060.570301184408
 30
0.0
 10
3642.682593492512
 20
3058.649311826782
 30
0.0
 10
3642.111190638126
 20
3056.811576970958
 30
0.0
 10
3640.926197357554
 20
3055.307741917722
 30
0.0
 10
3639.279579605588
 20
3054.2711004503
 30
0.0
 10
3638.016417576577
 20
3054.137097670726
 30
0.0
 10
3637.383650465189
 20
3054.06997045363
 30
0.0
  0
LINE
  5
1AA
330
1F
100
AcDbEntity
  8
0
  6
Continuous
 62
     7
370
    25
100
AcDbLine
 10
3637.391441534385
 20
3054.081884238359
 30
0.0
 11
3637.383650465189
 21
3054.069970453629
 31
0.0
  0
SPLINE
  5
1AB
330
1F
100
AcDbEntity
  8
0
  6
Continuous
 62
     7
370
    25
100
AcDbSpline
210
0.0
220
0.0
230
1.0
 70
     8
 71
     3
 72
    15
 73
    11
 74
     0
 42
0.00000001
 43
0.0000000001
 40
0.0
 40
0.0
 40
0.0
 40
0.0
 40
0.1250110191706787
 40
0.2499923088620055
 40
0.3749481991945383
 40
0.4998837854148277
 40
0.6248043937384736
 40
0.7497155009843413
 40
0.8746227357774804
 40
1.0
 40
1.0
 40
1.0
 40
1.0
 10
3638.641020670638
 20
3064.326657170151
 30
0.0
 10
3639.234520267241
 20
3064.111268075457
 30
0.0
 10
3640.421378317418
 20
3063.680541108801
 30
0.0
 10
3641.764394109183
 20
3062.287990302469
 30
0.0
 10
3642.55145916461
 20
3060.552351275122
 30
0.0
 10
3642.666040259898
 20
3058.640187289736
 30
0.0
 10
3642.097262533479
 20
3056.810895319926
 30
0.0
 10
3640.917713326173
 20
3055.313969156674
 30
0.0
 10
3639.27866043371
 20
3054.282090207479
 30
0.0
 10
3638.021301599319
 20
3054.148703060889
 30
0.0
 10
3637.391441534385
 20
3054.081884238359
 30
0.0
  0
LINE
  5
1AC
330
1F
100
AcDbEntity
  8
0
  6
Continuous
 62
     7
370
    25
100
AcDbLine
 10
3638.641020670638
 20
3064.326657170151
 30
0.0
 11
3638.638996889762
 21
3064.362026952798
 31
0.0
  0
LINE
  5
1AD
330
1F
100
AcDbEntity
  8
0
  6
Continuous
 62
     7
370
    25
100
AcDbLine
 10
3637.383650465189
 20
3054.069970453629
 30
0.0
 11
3637.055767783778
 21
3054.069970453629
 31
0.0
  0
LINE
  5
1AE
330
1F
100
AcDbEntity
  8
0
  6
Continuous
 62
     7
370
    25
100
AcDbLine
 10
3637.461321579249
 20
3067.848924518426
 30
0.0
 11
3638.638996889762
 21
3064.362026952798
 31
0.0
  0
SPLINE
  5
1AF
330
1F
100
AcDbEntity
  8
0
  6
Continuous
 62
     7
370
    25
100
AcDbSpline
210
0.0
220
0.0
230
1.0
 70
     8
 71
     3
 72
    15
 73
    11
 74
     0
 42
0.00000001
 43
0.0000000001
 40
0.0
 40
0.0
 40
0.0
 40
0.0
 40
0.1251138268299337
 40
0.2501265539733813
 40
0.3750873343716292
 40
0.5000391562833919
 40
0.6250183215381498
 40
0.7500483412678724
 40
0.8751416046849518
 40
1.0
 40
1.0
 40
1.0
 40
1.0
 10
3644.611175336177
 20
3070.592568739438
 30
0.0
 10
3644.367593306226
 20
3071.019712482134
 30
0.0
 10
3643.880626075622
 20
3071.873654809044
 30
0.0
 10
3642.606827912941
 20
3072.693629021549
 30
0.0
 10
3641.147728235902
 20
3073.002997799751
 30
0.0
 10
3639.672890012466
 20
3072.736917386981
 30
0.0
 10
3638.407044474432
 20
3071.941365872369
 30
0.0
 10
3637.540543882899
 20
3070.737778123508
 30
0.0
 10
3637.148089297085
 20
3069.285295790257
 30
0.0
 10
3637.356976245687
 20
3068.327414916804
 30
0.0
 10
3637.461321579249
 20
3067.848924518426
 30
0.0
  0
LINE
  5
1B0
330
1F
100
AcDbEntity
  8
0
  6
Continuous
 62
     7
370
    25
100
AcDbLine
 10
3647.252231138205
 20
3064.467465448952
 30
0.0
 11
3644.611175336177
 21
3070.592568739438
 31
0.0
  0
LINE
  5
1B1
330
1F
100
AcDbEntity
  8
0
  6
Continuous
 62
     7
370
    25
100
AcDbLine
 10
3648.938390060178
 20
3069.946845657218
 30
0.0
 11
3647.252231138205
 21
3064.467465448952
 31
0.0
  0
SPLINE
  5
1B2
330
1F
100
AcDbEntity
  8
0
  6
Continuous
 62
     7
370
    25
100
AcDbSpline
210
0.0
220
0.0
230
1.0
 70
     8
 71
     3
 72
    16
 73
    12
 74
     0
 42
0.00000001
 43
0.0000000001
 40
0.0
 40
0.0
 40
0.0
 40
0.0
 40
0.1250073556817593
 40
0.2498629362156449
 40
0.3124759187237218
 40
0.3752928066555859
 40
0.5001279860581296
 40
0.6250716977549157
 40
0.7501365730611549
 40
0.8751207033277477
 40
0.9999999999999998
 40
0.9999999999999998
 40
0.9999999999999998
 40
0.9999999999999998
 10
3656.263923100398
 20
3067.6925256097
 30
0.0
 10
3656.35781097032
 20
3068.188371102734
 30
0.0
 10
3656.545472718109
 20
3069.179460068041
 30
0.0
 10
3656.147349135751
 20
3070.425070709646
 30
0.0
 10
3655.590321834298
 20
3071.266787661146
 30
0.0
 10
3654.874807702468
 20
3071.984805525765
 30
0.0
 10
3653.735959843861
 20
3072.592879289942
 30
0.0
 10
3652.203662323865
 20
3072.738302008737
 30
0.0
 10
3650.750559861639
 20
3072.287450042586
 30
0.0
 10
3649.540954880332
 20
3071.329917694333
 30
0.0
 10
3649.139188811426
 20
3070.407740698962
 30
0.0
 10
3648.938390060178
 20
3069.946845657218
 30
0.0
  0
LINE
  5
1B3
330
1F
100
AcDbEntity
  8
0
  6
Continuous
 62
     7
370
    25
100
AcDbLine
 10
3652.910384095795
 20
3056.794912044234
 30
0.0
 11
3656.263923100398
 21
3067.6925256097
 31
0.0
  0
LINE
  5
1B4
330
1F
100
AcDbEntity
  8
0
  6
Continuous
 62
     7
370
    25
100
AcDbLine
 10
3657.402532552897
 20
3056.794912044234
 30
0.0
 11
3652.910384095795
 21
3056.794912044234
 31
0.0
  0
SPLINE
  5
1B5
330
1F
100
AcDbEntity
  8
0
  6
Continuous
 62
     7
370
    25
100
AcDbSpline
210
0.0
220
0.0
230
1.0
 70
     8
 71
     3
 72
    16
 73
    12
 74
     0
 42
0.00000001
 43
0.0000000001
 40
0.0
 40
0.0
 40
0.0
 40
0.0
 40
0.12498388347786
 40
0.2498329083229548
 40
0.3746047917904272
 40
0.4373701836425754
 40
0.5000086427398883
 40
0.6248736735557246
 40
0.7498929506168209
 40
0.8748924664021854
 40
1.0
 40
1.0
 40
1.0
 40
1.0
 10
3657.402532552897
 20
3049.218862628756
 30
0.0
 10
3657.895435795856
 20
3049.275008483667
 30
0.0
 10
3658.880710435139
 20
3049.387239611653
 30
0.0
 10
3660.143733181276
 20
3050.257395178333
 30
0.0
 10
3660.853188922596
 20
3051.308145137417
 30
0.0
 10
3661.142422124155
 20
3052.266380876353
 30
0.0
 10
3661.239811489424
 20
3053.261278290219
 30
0.0
 10
3660.987342859653
 20
3054.51341924588
 30
0.0
 10
3660.137656539386
 20
3055.760191833536
 30
0.0
 10
3658.880170060915
 20
3056.626412595853
 30
0.0
 10
3657.895220184362
 20
3056.738729392078
 30
0.0
 10
3657.402532552897
 20
3056.794912044234
 30
0.0
  0
LINE
  5
1B6
330
1F
100
AcDbEntity
  8
0
  6
Continuous
 62
     7
370
    25
100
AcDbLine
 10
3650.502755267392
 20
3049.218862628756
 30
0.0
 11
3657.402532552897
 21
3049.218862628756
 31
0.0
  0
LINE
  5
1B7
330
1F
100
AcDbEntity
  8
0
  6
Continuous
 62
     7
370
    25
100
AcDbLine
 10
3650.502755267392
 20
3048.405984834162
 30
0.0
 11
3650.502755267392
 21
3049.218862628756
 31
0.0
  0
SPLINE
  5
1B8
330
1F
100
AcDbEntity
  8
0
  6
Continuous
 62
     7
370
    25
100
AcDbSpline
210
0.0
220
0.0
230
1.0
 70
     8
 71
     3
 72
    23
 73
    19
 74
     0
 42
0.00000001
 43
0.0000000001
 40
0.0
 40
0.0
 40
0.0
 40
0.0
 40
0.0625068568156239
 40
0.1250136408172716
 40
0.187512397406941
 40
0.249992071117675
 40
0.3124764642983226
 40
0.3749720143701908
 40
0.437478334764521
 40
0.4999928760679669
 40
0.5625133198497156
 40
0.6250393677120769
 40
0.6875717406509862
 40
0.7501097323654564
 40
0.8126495131713909
 40
0.875183714431451
 40
0.9376956387521964
 40
1.0
 40
1.0
 40
1.0
 40
1.0
 10
3642.703674820134
 20
3048.121758804795
 30
0.0
 10
3642.198944943512
 20
3047.641418685803
 30
0.0
 10
3641.189485778228
 20
3046.680739007366
 30
0.0
 10
3640.339166729764
 20
3044.740655231382
 30
0.0
 10
3640.092662273375
 20
3042.669194114098
 30
0.0
 10
3640.504071548126
 20
3040.620908870972
 30
0.0
 10
3641.520319292965
 20
3038.801921315127
 30
0.0
 10
3643.048252909501
 20
3037.380398309983
 30
0.0
 10
3644.944850783343
 20
3036.495229496477
 30
0.0
 10
3647.029975052447
 20
3036.237736145991
 30
0.0
 10
3649.098752869104
 20
3036.640244690235
 30
0.0
 10
3650.942580178422
 20
3037.666627173599
 30
0.0
 10
3652.375032529779
 20
3039.213556653019
 30
0.0
 10
3653.254445309332
 20
3041.121944097947
 30
0.0
 10
3653.502249614939
 20
3043.203925333678
 30
0.0
 10
3653.09209799137
 20
3045.244260199128
 30
0.0
 10
3652.101377141304
 20
3047.095519538419
 30
0.0
 10
3651.035038136361
 20
3047.969647612279
 30
0.0
 10
3650.502755267392
 20
3048.405984834162
 30
0.0
  0
LINE
  5
1B9
330
1F
100
AcDbEntity
  8
0
  6
Continuous
 62
     7
370
    25
100
AcDbLine
 10
3642.703673823707
 20
3049.446802166337
 30
0.0
 11
3642.703674820135
 21
3048.121758804795
 31
0.0
  0
LINE
  5
1BA
330
1F
100
AcDbEntity
  8
0
  6
Continuous
 62
     7
370
    25
100
AcDbLine
 10
3637.4379030751
 20
3049.446813353777
 30
0.0
 11
3642.703673823707
 21
3049.446802166337
 31
0.0
  0
SPLINE
  5
1BB
330
1F
100
AcDbEntity
  8
0
  6
Continuous
 62
     7
370
    25
100
AcDbSpline
210
0.0
220
0.0
230
1.0
 70
     8
 71
     3
 72
    11
 73
     7
 74
     0
 42
0.00000001
 43
0.0000000001
 40
0.0
 40
0.0
 40
0.0
 40
0.0
 40
0.2496924360992048
 40
0.4994219562697155
 40
0.7491905203631222
 40
1.0
 40
1.0
 40
1.0
 40
1.0
 10
3635.722387314431
 20
3050.716384654057
 30
0.0
 10
3635.794783033816
 20
3050.539520116215
 30
0.0
 10
3635.939585224728
 20
3050.185764772787
 30
0.0
 10
3636.353399526988
 20
3049.777970619572
 30
0.0
 10
3636.864762411057
 20
3049.49993898433
 30
0.0
 10
3637.246591525151
 20
3049.464546429374
 30
0.0
 10
3637.4379030751
 20
3049.446813353777
 30
0.0
  0
LINE
  5
1BC
330
1F
100
AcDbEntity
  8
0
  6
Continuous
 62
     7
370
    25
100
AcDbLine
 10
3635.410951396426
 20
3051.560276295852
 30
0.0
 11
3635.722387314431
 21
3050.716384654057
 31
0.0
  0
SPLINE
  5
1BD
330
1F
100
AcDbEntity
  8
0
  6
Continuous
 62
     7
370
    25
100
AcDbSpline
210
0.0
220
0.0
230
1.0
 70
     8
 71
     3
 72
    15
 73
    11
 74
     0
 42
0.00000001
 43
0.0000000001
 40
0.0
 40
0.0
 40
0.0
 40
0.0
 40
0.1248095488850664
 40
0.249940090870956
 40
0.3750289785021083
 40
0.4997493000649097
 40
0.6246701349542848
 40
0.7498228612261939
 40
0.8748537926432963
 40
1.0
 40
1.0
 40
1.0
 40
1.0
 10
3637.055767783778
 20
3054.06997045363
 30
0.0
 10
3636.907836944285
 20
3054.059347800456
 30
0.0
 10
3636.611594807397
 20
3054.038075174096
 30
0.0
 10
3636.194319238936
 20
3053.869283632562
 30
0.0
 10
3635.829815215696
 20
3053.611129840952
 30
0.0
 10
3635.540421797295
 20
3053.26983455575
 30
0.0
 10
3635.342702447634
 20
3052.868346313982
 30
0.0
 10
3635.251278729616
 20
3052.4310319048
 30
0.0
 10
3635.262823599978
 20
3051.980836343985
 30
0.0
 10
3635.361560299068
 20
3051.700506035175
 30
0.0
 10
3635.410951396426
 20
3051.560276295852
 30
0.0
  0
LINE
  5
1BE
330
1F
100
AcDbEntity
  8
0
  6
Continuous
 62
     7
370
    25
100
AcDbLine
 10
3637.065065205263
 20
3054.081884238359
 30
0.0
 11
3637.055767783778
 21
3054.069970453629
 31
0.0
  0
LINE
  5
1BF
330
1F
100
AcDbEntity
  8
0
  6
Continuous
 62
     7
370
    25
100
AcDbLine
 10
3637.391441534385
 20
3054.081884238359
 30
0.0
 11
3637.065065205263
 21
3054.081884238359
 31
0.0
  0
SPLINE
  5
1C0
330
1F
100
AcDbEntity
  8
0
  6
Continuous
 62
     7
370
    25
100
AcDbSpline
210
0.0
220
0.0
230
1.0
 70
     8
 71
     3
 72
    11
 73
     7
 74
     0
 42
0.00000001
 43
0.0000000001
 40
0.0
 40
0.0
 40
0.0
 40
0.0
 40
0.3262770526530796
 40
0.6533932452901934
 40
0.9804005451365796
 40
1.0
 40
1.0
 40
1.0
 40
1.0
 10
3637.065065205263
 20
3054.081884238359
 30
0.0
 10
3636.917352837765
 20
3054.071740102548
 30
0.0
 10
3636.62154820675
 20
3054.051425741594
 30
0.0
 10
3636.213128694657
 20
3053.87694363722
 30
0.0
 10
3635.945625689964
 20
3053.717191404436
 30
0.0
 10
3635.845396687537
 20
3053.597640697953
 30
0.0
 10
3635.839729072055
 20
3053.590880504611
 30
0.0
  0
LINE
  5
1C1
330
1F
100
AcDbEntity
  8
0
  6
Continuous
 62
     7
370
    25
100
AcDbLine
 10
3630.81301528069
 20
3054.564126362823
 30
0.0
 11
3630.77486224417
 21
3054.554438310976
 31
0.0
  0
SPLINE
  5
1C2
330
1F
100
AcDbEntity
  8
0
  6
Continuous
 62
     7
370
    25
100
AcDbSpline
210
0.0
220
0.0
230
1.0
 70
     8
 71
     3
 72
    13
 73
     9
 74
     0
 42
0.00000001
 43
0.0000000001
 40
0.0
 40
0.0
 40
0.0
 40
0.0
 40
0.0216458925438836
 40
0.2363524566586829
 40
0.4494753031935081
 40
0.6609847178210153
 40
0.8714214964836848
 40
0.9999999999999998
 40
0.9999999999999998
 40
0.9999999999999998
 40
0.9999999999999998
 10
3634.315485046894
 20
3045.897834024307
 30
0.0
 10
3634.355036069329
 20
3045.961215982201
 30
0.0
 10
3634.786895430039
 20
3046.653286379655
 30
0.0
 10
3634.965439853984
 20
3048.280672925733
 30
0.0
 10
3634.714849124855
 20
3050.490171567141
 30
0.0
 10
3633.673862447688
 20
3052.488523065261
 30
0.0
 10
3632.276093779297
 20
3053.856033415137
 30
0.0
 10
3631.215331243033
 20
3054.369415623825
 30
0.0
 10
3630.81301528069
 20
3054.564126362823
 30
0.0
  0
LINE
  5
1C3
330
1F
100
AcDbEntity
  8
0
  6
Continuous
 62
     7
370
    25
100
AcDbLine
 10
3637.468755813312
 20
3067.797535298263
 30
0.0
 11
3638.641020670638
 21
3064.326657170151
 31
0.0
  0
LINE
  5
1C4
330
1F
100
AcDbEntity
  8
0
  6
Continuous
 62
     7
370
    25
100
AcDbLine
 10
3637.468755813312
 20
3067.797535298263
 30
0.0
 11
3637.461321579249
 21
3067.848924518426
 31
0.0
  0
LINE
  5
1C5
330
1F
100
AcDbEntity
  8
0
  6
Continuous
 62
     7
370
    25
100
AcDbLine
 10
3642.687024736093
 20
3048.160999748708
 30
0.0
 11
3642.703674820135
 21
3048.121758804795
 31
0.0
  0
LINE
  5
1C6
330
1F
100
AcDbEntity
  8
0
  6
Continuous
 62
     7
370
    25
100
AcDbLine
 10
3642.687023744242
 20
3049.479955621605
 30
0.0
 11
3642.687024736093
 21
3048.160999748708
 31
0.0
  0
LINE
  5
1C7
330
1F
100
AcDbEntity
  8
0
  6
Continuous
 62
     7
370
    25
100
AcDbLine
 10
3636.12952669929
 20
3072.236503268529
 30
0.0
 11
3636.115911407778
 21
3072.30838003317
 31
0.0
  0
LINE
  5
1C8
330
1F
100
AcDbEntity
  8
0
  6
Continuous
 62
     7
370
    25
100
AcDbLine
 10
3633.861478315289
 20
3063.095136859435
 30
0.0
 11
3636.12952669929
 21
3072.236503268529
 31
0.0
  0
LINE
  5
1C9
330
1F
100
AcDbEntity
  8
0
  6
Continuous
 62
     7
370
    25
100
AcDbLine
 10
3630.81301528069
 20
3054.564126362823
 30
0.0
 11
3630.81301528069
 21
3055.465831834118
 31
0.0
  0
SPLINE
  5
1CA
330
1F
100
AcDbEntity
  8
0
  6
Continuous
 62
     7
370
    25
100
AcDbSpline
210
0.0
220
0.0
230
1.0
 70
     8
 71
     3
 72
    11
 73
     7
 74
     0
 42
0.00000001
 43
0.0000000001
 40
0.0
 40
0.0
 40
0.0
 40
0.0
 40
0.3211625782638486
 40
0.6412414016254493
 40
0.9612127248738266
 40
1.0
 40
1.0
 40
1.0
 40
1.0
 10
3642.68702473609
 20
3048.160999748708
 30
0.0
 10
3642.179698870319
 20
3047.680532291242
 30
0.0
 10
3641.166759096926
 20
3046.721218701452
 30
0.0
 10
3640.370905617173
 20
3044.794532752213
 30
0.0
 10
3640.066529411625
 20
3043.315938884678
 30
0.0
 10
3640.228750313742
 20
3042.568082312454
 30
0.0
 10
3640.246288866937
 20
3042.487227613074
 30
0.0
  0
LINE
  5
1CB
330
1F
100
AcDbEntity
  8
0
  6
Continuous
 62
     7
370
    25
100
AcDbLine
 10
3650.592544177723
 20
3048.310600468708
 30
0.0
 11
3650.450274798445
 21
3048.443919992334
 31
0.0
  0
LINE
  5
1CC
330
1F
100
AcDbEntity
  8
0
  6
Continuous
 62
     7
370
    25
100
AcDbLine
 10
3649.523347895041
 20
3071.061141121827
 30
0.0
 11
3648.893096567682
 21
3069.88581820824
 31
0.0
  0
LINE
  5
1CD
330
1F
100
AcDbEntity
  8
0
  6
Continuous
 62
     7
370
    25
100
AcDbLine
 10
3648.893096567682
 20
3069.88581820824
 30
0.0
 11
3647.214684164493
 21
3064.431611262799
 31
0.0
  0
LINE
  5
1CE
330
1F
100
AcDbEntity
  8
0
  6
Continuous
 62
     7
370
    25
100
AcDbLine
 10
3637.378548500179
 20
3068.460614458883
 30
0.0
 11
3637.468755813312
 21
3067.797535298263
 31
0.0
  0
LINE
  5
1CF
330
1F
100
AcDbEntity
  8
0
  6
Continuous
 62
     7
370
    25
100
AcDbLine
 10
3636.12952669929
 20
3072.236503268529
 30
0.0
 11
3636.159228866642
 21
3072.639620047465
 31
0.0
  0
LINE
  5
1D0
330
1F
100
AcDbEntity
  8
0
  6
Continuous
 62
     7
370
    25
100
AcDbLine
 10
3612.823201078938
 20
3070.941408911033
 30
0.0
 11
3612.795788152443
 21
3070.076871062034
 31
0.0
  0
SPLINE
  5
1D1
330
1F
100
AcDbEntity
  8
0
  6
Continuous
 62
     7
370
    25
100
AcDbSpline
210
0.0
220
0.0
230
1.0
 70
     8
 71
     3
 72
    11
 73
     7
 74
     0
 42
0.00000001
 43
0.0000000001
 40
0.0
 40
0.0
 40
0.0
 40
0.0
 40
0.3359430882906313
 40
0.5007566250681212
 40
0.8367255500170946
 40
0.9999999999999998
 40
0.9999999999999998
 40
0.9999999999999998
 40
0.9999999999999998
 10
3612.111636124188
 20
3076.728355822464
 30
0.0
 10
3612.260982501915
 20
3076.096839136492
 30
0.0
 10
3612.483598149278
 20
3075.155500631953
 30
0.0
 10
3612.713460440275
 20
3073.542280698623
 30
0.0
 10
3612.821466001331
 20
3072.245123985757
 30
0.0
 10
3612.822773422506
 20
3071.262698846771
 30
0.0
 10
3612.823201006495
 20
3070.941402797046
 30
0.0
  0
LINE
  5
1D2
330
1F
100
AcDbEntity
  8
0
  6
Continuous
 62
     7
370
    25
100
AcDbLine
 10
3610.789680015795
 20
3082.361455210254
 30
0.0
 11
3612.111636124188
 21
3076.728355822464
 31
0.0
  0
LINE
  5
1D3
330
1F
100
AcDbEntity
  8
0
  6
Continuous
 62
     7
370
    25
100
AcDbLine
 10
3616.59749264288
 20
3081.571620816148
 30
0.0
 11
3610.789680015795
 21
3082.361455210254
 31
0.0
  0
LINE
  5
1D4
330
1F
100
AcDbEntity
  8
0
  6
Continuous
 62
     7
370
    25
100
AcDbLine
 10
3621.277181355006
 20
3081.332894479862
 30
0.0
 11
3616.59749264288
 21
3081.571620816148
 31
0.0
  0
LINE
  5
1D5
330
1F
100
AcDbEntity
  8
0
  6
Continuous
 62
     7
370
    25
100
AcDbLine
 10
3624.795369404537
 20
3081.821851339532
 30
0.0
 11
3621.277181355006
 21
3081.332894479862
 31
0.0
  0
LINE
  5
1D6
330
1F
100
AcDbEntity
  8
0
  6
Continuous
 62
     7
370
    25
100
AcDbLine
 10
3628.201776323267
 20
3082.904864252103
 30
0.0
 11
3624.795369404537
 21
3081.821851339532
 31
0.0
  0
ARC
  5
1D7
330
1F
100
AcDbEntity
  8
0
  6
Continuous
 62
     7
370
    25
100
AcDbCircle
 10
3639.07950652682
 20
3056.663204263033
 30
0.0
 40
28.40686067419622
100
AcDbArc
 50
162.8247283675753
 51
112.5150542182054
  0
LINE
  5
1D8
330
1F
100
AcDbEntity
  8
0
  6
Continuous
 62
     7
370
    25
100
AcDbLine
 10
3612.754516205818
 20
3069.451724697164
 30
0.0
 11
3611.939424289092
 21
3065.051628995517
 31
0.0
  0
LINE
  5
1D9
330
1F
100
AcDbEntity
  8
0
  6
Continuous
 62
     7
370
    25
100
AcDbLine
 10
3648.893096567682
 20
3069.88581820824
 30
0.0
 11
3648.938390060178
 21
3069.946845657218
 31
0.0
  0
SPLINE
  5
1DA
330
1F
100
AcDbEntity
  8
0
  6
Continuous
 62
     7
370
    25
100
AcDbSpline
210
0.0
220
0.0
230
1.0
 70
     8
 71
     3
 72
    11
 73
     7
 74
     0
 42
0.00000001
 43
0.0000000001
 40
0.0
 40
0.0
 40
0.0
 40
0.0
 40
0.2497455532959151
 40
0.4987284705457094
 40
0.7495446083600031
 40
1.0
 40
1.0
 40
1.0
 40
1.0
 10
3611.987169030022
 20
3076.820964214277
 30
0.0
 10
3612.198370046377
 20
3075.870606751497
 30
0.0
 10
3612.620127144647
 20
3073.972793887046
 30
0.0
 10
3612.760476160626
 20
3071.003220480684
 30
0.0
 10
3612.549436840046
 20
3068.011617548405
 30
0.0
 10
3612.059136243793
 20
3066.063635087667
 30
0.0
 10
3611.814162371072
 20
3065.090344801975
 30
0.0
  0
LINE
  5
1DB
330
1F
100
AcDbEntity
  8
0
  6
Continuous
 62
     7
370
    25
100
AcDbLine
 10
3612.111636124188
 20
3076.728355822464
 30
0.0
 11
3611.987169030022
 21
3076.820964214277
 31
0.0
  0
LINE
  5
1DC
330
1F
100
AcDbEntity
  8
0
  6
Continuous
 62
     7
370
    25
100
AcDbLine
 10
3611.939424289092
 20
3065.051628995517
 30
0.0
 11
3611.814162371072
 21
3065.090344801975
 31
0.0
  0
ARC
  5
1DD
330
1F
100
AcDbEntity
  8
0
  6
Continuous
 62
     7
370
    25
100
AcDbCircle
 10
3639.07950652682
 20
3056.663204263033
 30
0.0
 40
28.53796926192276
100
AcDbArc
 50
162.8247283675749
 51
112.5150542182057
  0
LINE
  5
1DE
330
1F
100
AcDbEntity
  8
0
  6
Continuous
 62
     7
370
    25
100
AcDbLine
 10
3628.201776323267
 20
3082.904864252103
 30
0.0
 11
3628.151571414635
 21
3083.025979605898
 31
0.0
  0
ARC
  5
1DF
330
1F
100
AcDbEntity
  8
0
  6
Continuous
 62
     7
370
    25
100
AcDbCircle
 10
3639.07950652682
 20
3056.663204263033
 30
0.0
 40
32.00992003115377
100
AcDbArc
 50
162.8704541132132
 51
112.5150542182053
  0
SPLINE
  5
1E0
330
1F
100
AcDbEntity
  8
0
  6
Continuous
 62
     7
370
    25
100
AcDbSpline
210
0.0
220
0.0
230
1.0
 70
     8
 71
     3
 72
    11
 73
     7
 74
     0
 42
0.00000001
 43
0.0000000001
 40
0.0
 40
0.0
 40
0.0
 40
0.0
 40
0.2497498727961986
 40
0.4987517504754253
 40
0.7495590361033316
 40
1.0
 40
1.0
 40
1.0
 40
1.0
 10
3608.617819859031
 20
3075.981826943948
 30
0.0
 10
3608.797670148027
 20
3075.181186985598
 30
0.0
 10
3609.156832078546
 20
3073.582304967133
 30
0.0
 10
3609.280088980681
 20
3071.078789875652
 30
0.0
 10
3609.106420496824
 20
3068.555714487593
 30
0.0
 10
3608.695044115496
 20
3066.912295981961
 30
0.0
 10
3608.489506245666
 20
3066.091187249857
 30
0.0
  0
LINE
  5
1E1
330
1F
100
AcDbEntity
  8
0
  6
Continuous
 62
     7
370
    25
100
AcDbLine
 10
3606.721650505909
 20
3084.061755130973
 30
0.0
 11
3608.617819859031
 21
3075.981826943948
 31
0.0
  0
SPLINE
  5
1E2
330
1F
100
AcDbEntity
  8
0
  6
Continuous
 62
     7
370
    25
100
AcDbSpline
210
0.0
220
0.0
230
1.0
 70
     8
 71
     3
 72
    15
 73
    11
 74
     0
 42
0.00000001
 43
0.0000000001
 40
0.0
 40
0.0
 40
0.0
 40
0.0
 40
0.1248527834764166
 40
0.2499643396003313
 40
0.3748917915147496
 40
0.4995040890512767
 40
0.6245288097955886
 40
0.74974149446134
 40
0.8749676894783505
 40
1.0
 40
1.0
 40
1.0
 40
1.0
 10
3608.709775144895
 20
3086.249072830591
 30
0.0
 10
3608.569303186036
 20
3086.258623354948
 30
0.0
 10
3608.288068123022
 20
3086.27774419829
 30
0.0
 10
3607.862604829457
 20
3086.177931558609
 30
0.0
 10
3607.467133704869
 20
3085.982368628192
 30
0.0
 10
3607.12794948898
 20
3085.691456256515
 30
0.0
 10
3606.869827184772
 20
3085.326201142557
 30
0.0
 10
3606.712077478228
 20
3084.913099673332
 30
0.0
 10
3606.652914680477
 20
3084.479378192741
 30
0.0
 10
3606.698750400974
 20
3084.200890900103
 30
0.0
 10
3606.721650505909
 20
3084.061755130973
 30
0.0
  0
LINE
  5
1E3
330
1F
100
AcDbEntity
  8
0
  6
Continuous
 62
     7
370
    25
100
AcDbLine
 10
3616.961591337449
 20
3085.126865786181
 30
0.0
 11
3608.709775144895
 21
3086.249072830591
 31
0.0
  0
LINE
  5
1E4
330
1F
100
AcDbEntity
  8
0
  6
Continuous
 62
     7
370
    25
100
AcDbLine
 10
3621.044089069705
 20
3084.915631933888
 30
0.0
 11
3616.961591337449
 21
3085.126865786181
 31
0.0
  0
SPLINE
  5
1E5
330
1F
100
AcDbEntity
  8
0
  6
Continuous
 62
     7
370
    25
100
AcDbSpline
210
0.0
220
0.0
230
1.0
 70
     8
 71
     3
 72
     9
 73
     5
 74
     0
 42
0.00000001
 43
0.0000000001
 40
0.0
 40
0.0
 40
0.0
 40
0.0
 40
0.4999999767848634
 40
1.0
 40
1.0
 40
1.0
 40
1.0
 10
3626.822070623229
 20
3086.233294649609
 30
0.0
 10
3625.882325397459
 20
3085.890467210333
 30
0.0
 10
3624.002834858651
 20
3085.204812299946
 30
0.0
 10
3622.030337696549
 20
3085.012025392224
 30
0.0
 10
3621.044089069705
 20
3084.915631933888
 30
0.0
  0
LINE
  5
1E6
330
1F
100
AcDbEntity
  8
0
  6
Continuous
 62
     7
370
    25
100
AcDbLine
 10
3616.493729501878
 20
3081.686582738701
 30
0.0
 11
3610.659111585745
 21
3082.480062522319
 31
0.0
  0
LINE
  5
1E7
330
1F
100
AcDbEntity
  8
0
  6
Continuous
 62
     7
370
    25
100
AcDbLine
 10
3610.659111585745
 20
3082.480062522319
 30
0.0
 11
3611.987169030022
 21
3076.820964214277
 31
0.0
  0
SPLINE
  5
1E8
330
1F
100
AcDbEntity
  8
0
  6
Continuous
 62
     7
370
    25
100
AcDbSpline
210
0.0
220
0.0
230
1.0
 70
     8
 71
     3
 72
     9
 73
     5
 74
     0
 42
0.00000001
 43
0.0000000001
 40
0.0
 40
0.0
 40
0.0
 40
0.0
 40
0.4999999805618142
 40
0.9999999999999998
 40
0.9999999999999998
 40
0.9999999999999998
 40
0.9999999999999998
 10
3628.151571414635
 20
3083.025979605898
 30
0.0
 10
3627.020219881023
 20
3082.613575972941
 30
0.0
 10
3624.757516725833
 20
3081.78876867496
 30
0.0
 10
3622.382516790914
 20
3081.560759286979
 30
0.0
 10
3621.195016777289
 20
3081.446754588555
 30
0.0
  0
LINE
  5
1E9
330
1F
100
AcDbEntity
  8
0
  6
Continuous
 62
     7
370
    25
100
AcDbLine
 10
3621.195016777289
 20
3081.446754588555
 30
0.0
 11
3616.493729501878
 21
3081.686582738701
 31
0.0
  0
LINE
  5
1EA
330
1F
100
AcDbEntity
  8
0
  6
Continuous
 62
     7
370
    25
100
AcDbLine
 10
3621.277181355006
 20
3081.332894479862
 30
0.0
 11
3621.195016777289
 21
3081.446754588555
 31
0.0
  0
LINE
  5
1EB
330
1F
100
AcDbEntity
  8
0
  6
Continuous
 62
     7
370
    25
100
AcDbLine
 10
3616.59749264288
 20
3081.571620816148
 30
0.0
 11
3616.493729501878
 21
3081.686582738701
 31
0.0
  0
LINE
  5
1EC
330
1F
100
AcDbEntity
  8
0
  6
Continuous
 62
     7
370
    25
100
AcDbLine
 10
3610.789680015795
 20
3082.361455210254
 30
0.0
 11
3610.659111585745
 21
3082.480062522319
 31
0.0
  0
SPLINE
  5
1ED
330
1F
100
AcDbEntity
  8
0
  6
Continuous
 62
     7
370
    25
100
AcDbSpline
210
0.0
220
0.0
230
1.0
 70
     8
 71
     3
 72
     9
 73
     5
 74
     0
 42
0.00000001
 43
0.0000000001
 40
0.0
 40
0.0
 40
0.0
 40
0.0
 40
0.9910731980103564
 40
1.0
 40
1.0
 40
1.0
 40
1.0
 10
5028.201776323268
 20
3082.904864252103
 30
0.0
 10
5027.105097554771
 20
3082.452158472263
 30
0.0
 10
5025.998540772995
 20
3081.995375077507
 30
0.0
 10
5024.836046828256
 20
3081.832934836979
 30
0.0
 10
5024.825669474997
 20
3081.831484765117
 30
0.0
  0
SPLINE
  5
1EE
330
1F
100
AcDbEntity
  8
0
  6
Continuous
 62
     7
370
    25
100
AcDbSpline
210
0.0
220
0.0
230
1.0
 70
     8
 71
     3
 72
     9
 73
     5
 74
     0
 42
0.00000001
 43
0.0000000001
 40
0.0
 40
0.0
 40
0.0
 40
0.0
 40
0.9242238123458733
 40
0.9999999999999998
 40
0.9999999999999998
 40
0.9999999999999998
 40
0.9999999999999998
 10
3612.111636124188
 20
3076.728355822464
 30
0.0
 10
3612.386205357008
 20
3075.665306417052
 30
0.0
 10
3612.683286247103
 20
3074.515098652208
 30
0.0
 10
3612.708848029583
 20
3073.313922235143
 30
0.0
 10
3612.71078500401
 20
3073.222901665558
 30
0.0
  0
SPLINE
  5
1EF
330
1F
100
AcDbEntity
  8
0
  6
Continuous
 62
     7
370
    25
100
AcDbSpline
210
0.0
220
0.0
230
1.0
 70
     8
 71
     3
 72
     9
 73
     5
 74
     0
 42
0.00000001
 43
0.0000000001
 40
0.0
 40
0.0
 40
0.0
 40
0.0
 40
0.3732576644365866
 40
1.0
 40
1.0
 40
1.0
 40
1.0
 10
3612.686781931434
 20
3069.086076009628
 30
0.0
 10
3612.64205426405
 20
3068.577329397876
 30
0.0
 10
3612.52222372433
 20
3067.214339002166
 30
0.0
 10
3612.163962048528
 20
3065.884866006125
 30
0.0
 10
3611.939424289092
 20
3065.051628995517
 30
0.0
  0
SPLINE
  5
1F0
330
1F
100
AcDbEntity
  8
0
  6
Continuous
 62
     7
370
    25
100
AcDbSpline
210
0.0
220
0.0
230
1.0
 70
     8
 71
     3
 72
     9
 73
     5
 74
     0
 42
0.00000001
 43
0.0000000001
 40
0.0
 40
0.0
 40
0.0
 40
0.0
 40
0.9910731980103562
 40
1.0
 40
1.0
 40
1.0
 40
1.0
 10
3628.201776323267
 20
3082.904864252103
 30
0.0
 10
3627.105097554767
 20
3082.452158472263
 30
0.0
 10
3625.998540772985
 20
3081.995375077507
 30
0.0
 10
3624.836046828256
 20
3081.832934836979
 30
0.0
 10
3624.825669474997
 20
3081.831484765116
 30
0.0
  0
CIRCLE
  5
1F1
330
1F
100
AcDbEntity
  8
0
  6
Continuous
 62
     7
370
    25
100
AcDbCircle
 10
3639.07950652682
 20
3056.663204263033
 30
0.0
 40
53.38142387184643
  0
CIRCLE
  5
1F2
330
1F
100
AcDbEntity
  8
0
  6
Continuous
 62
     7
370
    25
100
AcDbCircle
 10
5039.079506526821
 20
3056.663204263035
 30
0.0
 40
53.38142387184689
  0
ARC
  5
1F3
330
1F
100
AcDbEntity
  8
0
  6
Continuous
 62
     7
370
    25
100
AcDbCircle
 10
5072.806780247661
 20
3098.105272182166
 30
0.0
 40
0.5000000000003741
100
AcDbArc
 50
60.000000000106
 51
117.1393327155145
  0
LINE
  5
1F4
330
1F
100
AcDbEntity
  8
0
  6
Continuous
 62
     7
370
    25
100
AcDbLine
 10
5073.469764058348
 20
3098.299848569788
 30
0.0
 11
5073.056780247661
 21
3098.538284884059
 31
0.0
  0
ARC
  5
1F5
330
1F
100
AcDbEntity
  8
0
  6
Continuous
 62
     7
370
    25
100
AcDbCircle
 10
5073.898509875783
 20
3098.727462396853
 30
0.0
 40
0.6055382407948261
100
AcDbArc
 50
224.9242628569687
 51
297.4968951245382
  0
ARC
  5
1F6
330
1F
100
AcDbEntity
  8
0
  6
Continuous
 62
     7
370
    25
100
AcDbCircle
 10
5091.833027005019
 20
3065.150846146115
 30
0.0
 40
0.5000000000004079
100
AcDbArc
 50
302.860665489069
 51
0.0
  0
LINE
  5
1F7
330
1F
100
AcDbEntity
  8
0
  6
Continuous
 62
     7
370
    25
100
AcDbLine
 10
5092.333027005019
 20
3065.150846146115
 30
0.0
 11
5092.33302700502
 21
3065.628144163138
 31
0.0
  0
ARC
  5
1F8
330
1F
100
AcDbEntity
  8
0
  6
Continuous
 62
     7
370
    25
100
AcDbCircle
 10
5092.917823434503
 20
3065.785278535421
 30
0.0
 40
0.6055394907753274
100
AcDbArc
 50
122.5072743940618
 51
195.0400897604853
  0
ARC
  5
1F9
330
1F
100
AcDbEntity
  8
0
  6
Continuous
 62
     7
370
    25
100
AcDbCircle
 10
5092.054993941042
 20
3067.139270162317
 30
0.0
 40
1.00000342689768
100
AcDbArc
 50
302.5072743940403
 51
79.86491248166245
  0
ARC
  5
1FA
330
1F
100
AcDbEntity
  8
0
  6
Continuous
 62
     7
370
    25
100
AcDbCircle
 10
5092.337520679229
 20
3068.719759549406
 30
0.0
 40
0.6055394907764055
100
AcDbArc
 50
125.646338768627
 51
259.8649124816043
  0
ARC
  5
1FB
330
1F
100
AcDbEntity
  8
0
  6
Continuous
 62
     7
370
    25
100
AcDbCircle
 10
5091.401841757292
 20
3070.024471400941
 30
0.0
 40
1.000003426898823
100
AcDbArc
 50
305.6463387687144
 51
83.00398027960644
  0
ARC
  5
1FC
330
1F
100
AcDbEntity
  8
0
  6
Continuous
 62
     7
370
    25
100
AcDbCircle
 10
5091.597397513939
 20
3071.618060434078
 30
0.0
 40
0.6055394907766216
100
AcDbArc
 50
128.7854065666263
 51
263.003980279599
  0
ARC
  5
1FD
330
1F
100
AcDbEntity
  8
0
  6
Continuous
 62
     7
370
    25
100
AcDbCircle
 10
5090.591676935437
 20
3072.869577185253
 30
0.0
 40
1.000003426897703
100
AcDbArc
 50
308.7854065666789
 51
86.14304807761843
  0
ARC
  5
1FE
330
1F
100
AcDbEntity
  8
0
  6
Continuous
 62
     7
370
    25
100
AcDbCircle
 10
5090.699674872721
 20
3074.471483707505
 30
0.0
 40
0.6055394907756315
100
AcDbArc
 50
131.9244743645951
 51
266.1430480774951
  0
ARC
  5
1FF
330
1F
100
AcDbEntity
  8
0
  6
Continuous
 62
     7
370
    25
100
AcDbCircle
 10
5089.626930676519
 20
3075.666049716568
 30
0.0
 40
1.00000342689855
100
AcDbArc
 50
311.9244743646237
 51
89.28211433915592
  0
ARC
  5
200
330
1F
100
AcDbEntity
  8
0
  6
Continuous
 62
     7
370
    25
100
AcDbCircle
 10
5089.64704674821
 20
3077.271466508783
 30
0.0
 40
0.6055393888086945
100
AcDbArc
 50
135.0635395814103
 51
269.2821143392149
  0
ARC
  5
201
330
1F
100
AcDbEntity
  8
0
  6
Continuous
 62
     7
370
    25
100
AcDbCircle
 10
5088.510498172652
 20
3078.405497068035
 30
0.0
 40
1.000003501904201
100
AcDbArc
 50
315.0635395814673
 51
92.42118602247044
  0
ARC
  5
202
330
1F
100
AcDbEntity
  8
0
  6
Continuous
 62
     7
370
    25
100
AcDbCircle
 10
5088.442671864951
 20
3080.009606654659
 30
0.0
 40
0.6055393888094502
100
AcDbArc
 50
138.202607379361
 51
272.4211860223384
  0
ARC
  5
203
330
1F
100
AcDbEntity
  8
0
  6
Continuous
 62
     7
370
    25
100
AcDbCircle
 10
5087.245729475167
 20
3081.079698655124
 30
0.0
 40
1.000003501903547
100
AcDbArc
 50
318.2026073793743
 51
95.56025382040218
  0
ARC
  5
204
330
1F
100
AcDbEntity
  8
0
  6
Continuous
 62
     7
370
    25
100
AcDbCircle
 10
5087.090164434075
 20
3082.677687232025
 30
0.0
 40
0.6055393888091596
100
AcDbArc
 50
141.3416762709463
 51
275.5602538204698
  0
ARC
  5
205
330
1F
100
AcDbEntity
  8
0
  6
Continuous
 62
     7
370
    25
100
AcDbCircle
 10
5085.855739713919
 20
3083.647166572097
 30
0.0
 40
1.00000372095555
100
AcDbArc
 50
31.1070042674209
 51
98.65831859082426
  0
ARC
  5
206
330
1F
100
AcDbEntity
  8
0
  6
Continuous
 62
     7
370
    25
100
AcDbCircle
 10
5085.614038597908
 20
3085.234412178633
 30
0.0
 40
0.6055391918790193
100
AcDbArc
 50
144.4397485599734
 51
278.6583185908253
  0
ARC
  5
207
330
1F
100
AcDbEntity
  8
0
  6
Continuous
 62
     7
370
    25
100
AcDbCircle
 10
5084.30792235593
 20
3086.168129705488
 30
0.0
 40
1.000003724867789
100
AcDbArc
 50
324.4397485599306
 51
101.7973902403233
  0
ARC
  5
208
330
1F
100
AcDbEntity
  8
0
  6
Continuous
 62
     7
370
    25
100
AcDbCircle
 10
5083.979666754004
 20
3087.739758261261
 30
0.0
 40
0.605539191879468
100
AcDbArc
 50
147.5788163579832
 51
281.7973902401657
  0
ARC
  5
209
330
1F
100
AcDbEntity
  8
0
  6
Continuous
 62
     7
370
    25
100
AcDbCircle
 10
5082.624380197644
 20
3088.60055231774
 30
0.0
 40
1.000003724868359
100
AcDbArc
 50
327.5788163579712
 51
104.9364580381831
  0
ARC
  5
20A
330
1F
100
AcDbEntity
  8
0
  6
Continuous
 62
     7
370
    25
100
AcDbCircle
 10
5082.210555270181
 20
3090.151847578782
 30
0.0
 40
0.6055391918804074
100
AcDbArc
 50
150.7178841559404
 51
284.9364580381361
  0
ARC
  5
20B
330
1F
100
AcDbEntity
  8
0
  6
Continuous
 62
     7
370
    25
100
AcDbCircle
 10
5080.810165441111
 20
3090.937135031983
 30
0.0
 40
1.000003724868
100
AcDbArc
 50
330.7178841559123
 51
108.0755258361662
  0
ARC
  5
20C
330
1F
100
AcDbEntity
  8
0
  6
Continuous
 62
     7
370
    25
100
AcDbCircle
 10
5080.312013023805
 20
3092.463441759561
 30
0.0
 40
0.6055391918792569
100
AcDbArc
 50
153.8569519678406
 51
288.075525836171
  0
ARC
  5
20D
330
1F
100
AcDbEntity
  8
0
  6
Continuous
 62
     7
370
    25
100
AcDbCircle
 10
5078.870722313283
 20
3093.170866061594
 30
0.0
 40
1.000003724191263
100
AcDbArc
 50
333.856951967871
 51
111.2146911627125
  0
ARC
  5
20E
330
1F
100
AcDbEntity
  8
0
  6
Continuous
 62
     7
370
    25
100
AcDbCircle
 10
5078.289735167671
 20
3094.667601939692
 30
0.0
 40
0.6055380386272686
100
AcDbArc
 50
156.9959222076943
 51
291.2146911627247
  0
ARC
  5
20F
330
1F
100
AcDbEntity
  8
0
  6
Continuous
 62
     7
370
    25
100
AcDbCircle
 10
5076.811870833705
 20
3095.295042267306
 30
0.0
 40
1.000003724868504
100
AcDbArc
 50
336.9959222076701
 51
114.3536614321055
  0
ARC
  5
210
330
1F
100
AcDbEntity
  8
0
  6
Continuous
 62
     7
370
    25
100
AcDbCircle
 10
5076.149796681882
 20
3096.757719906092
 30
0.0
 40
0.6055391918791744
100
AcDbArc
 50
160.1350890060331
 51
294.3536614320709
  0
ARC
  5
211
330
1F
100
AcDbEntity
  8
0
  6
Continuous
 62
     7
370
    25
100
AcDbCircle
 10
5074.639789431597
 20
3097.303289194454
 30
0.0
 40
1.000003627330147
100
AcDbArc
 50
340.1350890059813
 51
117.4968951246554
  0
ARC
  5
212
330
1F
100
AcDbEntity
  8
0
  6
Continuous
 62
     7
370
    25
100
AcDbCircle
 10
5083.979666771103
 20
3025.586650412656
 30
0.0
 40
0.6055393888089931
100
AcDbArc
 50
78.20260847295547
 51
212.42118213712
  0
ARC
  5
213
330
1F
100
AcDbEntity
  8
0
  6
Continuous
 62
     7
370
    25
100
AcDbCircle
 10
5084.307922428647
 20
3027.158279058346
 30
0.0
 40
1.000003627328767
100
AcDbArc
 50
258.2026084729213
 51
35.56025146754159
  0
ARC
  5
214
330
1F
100
AcDbEntity
  8
0
  6
Continuous
 62
     7
370
    25
100
AcDbCircle
 10
5085.61403867093
 20
3028.091996586367
 30
0.0
 40
0.6055392903444931
100
AcDbArc
 50
81.34167775458417
 51
215.5602514675236
  0
ARC
  5
215
330
1F
100
AcDbEntity
  8
0
  6
Continuous
 62
     7
370
    25
100
AcDbCircle
 10
5085.855739888913
 20
3029.679242182272
 30
0.0
 40
1.000003627330456
100
AcDbArc
 50
261.3416777545303
 51
328.8929871120878
  0
ARC
  5
216
330
1F
100
AcDbEntity
  8
0
  6
Continuous
 62
     7
370
    25
100
AcDbCircle
 10
5085.836419991876
 20
3029.645779332033
 30
0.0
 40
1.000003720955084
100
AcDbArc
 50
331.1070042676058
 51
38.65831864367066
  0
ARC
  5
217
330
1F
100
AcDbEntity
  8
0
  6
Continuous
 62
     7
370
    25
100
AcDbCircle
 10
5087.090164452987
 20
3030.648721445234
 30
0.0
 40
0.6055391953811596
100
AcDbArc
 50
84.43975152199264
 51
218.6583186435802
  0
ARC
  5
218
330
1F
100
AcDbEntity
  8
0
  6
Continuous
 62
     7
370
    25
100
AcDbCircle
 10
5087.245729347692
 20
3032.246710063474
 30
0.0
 40
1.000003722292123
100
AcDbArc
 50
264.4397515218827
 51
41.7973862535046
  0
ARC
  5
219
330
1F
100
AcDbEntity
  8
0
  6
Continuous
 62
     7
370
    25
100
AcDbCircle
 10
5088.442671876492
 20
3033.316801948893
 30
0.0
 40
0.6055391953815923
100
AcDbArc
 50
87.57881932009116
 51
221.7973862534668
  0
ARC
  5
21A
330
1F
100
AcDbEntity
  8
0
  6
Continuous
 62
     7
370
    25
100
AcDbCircle
 10
5088.510498035757
 20
3034.920911568779
 30
0.0
 40
1.000003722292172
100
AcDbArc
 50
267.5788193201263
 51
44.93645405112561
  0
ARC
  5
21B
330
1F
100
AcDbEntity
  8
0
  6
Continuous
 62
     7
370
    25
100
AcDbCircle
 10
5089.647046756428
 20
3036.054942020767
 30
0.0
 40
0.6055391953824102
100
AcDbArc
 50
90.71788424450657
 51
224.9364540511367
  0
ARC
  5
21C
330
1F
100
AcDbEntity
  8
0
  6
Continuous
 62
     7
370
    25
100
AcDbCircle
 10
5089.626930723143
 20
3037.660358915439
 30
0.0
 40
1.000003722291756
100
AcDbArc
 50
270.717884244575
 51
48.07552575306907
  0
ARC
  5
21D
330
1F
100
AcDbEntity
  8
0
  6
Continuous
 62
     7
370
    25
100
AcDbCircle
 10
5090.699674916782
 20
3038.854924926584
 30
0.0
 40
0.6055391952195575
100
AcDbArc
 50
93.85695205232496
 51
228.07552575309
  0
ARC
  5
21E
330
1F
100
AcDbEntity
  8
0
  6
Continuous
 62
     7
370
    25
100
AcDbCircle
 10
5090.591676975915
 20
3040.456831447871
 30
0.0
 40
1.000003721732767
100
AcDbArc
 50
273.8569520523915
 51
51.21469108827105
  0
ARC
  5
21F
330
1F
100
AcDbEntity
  8
0
  6
Continuous
 62
     7
370
    25
100
AcDbCircle
 10
5091.597394698577
 20
3041.708349013799
 30
0.0
 40
0.6055380421294579
100
AcDbArc
 50
96.99592229629768
 51
231.2146910882801
  0
ARC
  5
220
330
1F
100
AcDbEntity
  8
0
  6
Continuous
 62
     7
370
    25
100
AcDbCircle
 10
5091.401841792087
 20
3043.301937234785
 30
0.0
 40
1.000003722292572
100
AcDbArc
 50
276.9959222963382
 51
54.35366129865489
  0
ARC
  5
221
330
1F
100
AcDbEntity
  8
0
  6
Continuous
 62
     7
370
    25
100
AcDbCircle
 10
5092.337520710449
 20
3044.606649084574
 30
0.0
 40
0.6055391918786982
100
AcDbArc
 50
100.1350890059279
 51
234.3536612987043
  0
ARC
  5
222
330
1F
100
AcDbEntity
  8
0
  6
Continuous
 62
     7
370
    25
100
AcDbCircle
 10
5092.054993948554
 20
3046.187138367399
 30
0.0
 40
1.000003627330917
100
AcDbArc
 50
280.1350890060088
 51
57.49689512459926
  0
ARC
  5
223
330
1F
100
AcDbEntity
  8
0
  6
Continuous
 62
     7
370
    25
100
AcDbCircle
 10
5092.917724343313
 20
3047.541191895241
 30
0.0
 40
0.6055382407947824
100
AcDbArc
 50
164.9242628568822
 51
237.4968951246109
  0
LINE
  5
224
330
1F
100
AcDbEntity
  8
0
  6
Continuous
 62
     7
370
    25
100
AcDbLine
 10
5092.333026997348
 20
3047.698689751375
 30
0.0
 11
5092.333026997348
 21
3048.175562379915
 31
0.0
  0
ARC
  5
225
330
1F
100
AcDbEntity
  8
0
  6
Continuous
 62
     7
370
    25
100
AcDbCircle
 10
5091.833026997349
 20
3048.175562379915
 30
0.0
 40
0.5000000000000745
100
AcDbArc
 50
0.0
 51
57.13933355877067
  0
ARC
  5
226
330
1F
100
AcDbEntity
  8
0
  6
Continuous
 62
     7
370
    25
100
AcDbCircle
 10
4987.567336101243
 20
3040.45683159663
 30
0.0
 40
1.000003525362473
100
AcDbArc
 50
128.7854064465445
 51
266.1430479574613
  0
ARC
  5
227
330
1F
100
AcDbEntity
  8
0
  6
Continuous
 62
     7
370
    25
100
AcDbCircle
 10
4987.459338160601
 20
3038.854925074605
 30
0.0
 40
0.6055393923115736
100
AcDbArc
 50
311.9244742444868
 51
86.14304795748921
  0
ARC
  5
228
330
1F
100
AcDbEntity
  8
0
  6
Continuous
 62
     7
370
    25
100
AcDbCircle
 10
4989.716341323113
 20
3033.316801956518
 30
0.0
 40
0.6055394634221213
100
AcDbArc
 50
318.2026073486999
 51
92.4211862774023
  0
ARC
  5
229
330
1F
100
AcDbEntity
  8
0
  6
Continuous
 62
     7
370
    25
100
AcDbCircle
 10
4990.913283709418
 20
3032.246709958009
 30
0.0
 40
1.000003423394856
100
AcDbArc
 50
138.2026073486326
 51
275.5602499312102
  0
ARC
  5
22A
330
1F
100
AcDbEntity
  8
0
  6
Continuous
 62
     7
370
    25
100
AcDbCircle
 10
4991.068848634771
 20
3030.648721445202
 30
0.0
 40
0.6055393923119078
100
AcDbArc
 50
321.3416764000265
 51
95.56024993111149
  0
ARC
  5
22B
330
1F
100
AcDbEntity
  8
0
  6
Continuous
 62
     7
370
    25
100
AcDbCircle
 10
4992.322593086901
 20
3029.645779161326
 30
0.0
 40
1.000003623627289
100
AcDbArc
 50
141.3416763999538
 51
208.8929874040812
  0
ARC
  5
22C
330
1F
100
AcDbEntity
  8
0
  6
Continuous
 62
     7
370
    25
100
AcDbCircle
 10
4992.303273198844
 20
3029.679242182239
 30
0.0
 40
1.000003620325824
100
AcDbArc
 50
211.107012888095
 51
278.6583223350477
  0
ARC
  5
22D
330
1F
100
AcDbEntity
  8
0
  6
Continuous
 62
     7
370
    25
100
AcDbCircle
 10
4992.54497441915
 20
3028.091996587761
 30
0.0
 40
0.6055392962874588
100
AcDbArc
 50
324.4397484428405
 51
98.65832233510181
  0
ARC
  5
22E
330
1F
100
AcDbEntity
  8
0
  6
Continuous
 62
     7
370
    25
100
AcDbCircle
 10
4993.851090659109
 20
3027.158279058316
 30
0.0
 40
1.000003620324893
100
AcDbArc
 50
144.4397484428588
 51
281.7973901329983
  0
ARC
  5
22F
330
1F
100
AcDbEntity
  8
0
  6
Continuous
 62
     7
370
    25
100
AcDbCircle
 10
4994.179346258068
 20
3025.586650502058
 30
0.0
 40
0.605539296288711
100
AcDbArc
 50
327.5788162408774
 51
101.7973901330923
  0
ARC
  5
230
330
1F
100
AcDbEntity
  8
0
  6
Continuous
 62
     7
370
    25
100
AcDbCircle
 10
4995.534632812554
 20
3024.725856442882
 30
0.0
 40
1.000003620325382
100
AcDbArc
 50
147.5788162408907
 51
284.9364579309339
  0
ARC
  5
231
330
1F
100
AcDbEntity
  8
0
  6
Continuous
 62
     7
370
    25
100
AcDbCircle
 10
4995.94845773708
 20
3023.174561181196
 30
0.0
 40
0.6055392962896895
100
AcDbArc
 50
330.7178840388312
 51
104.9364579310501
  0
ARC
  5
232
330
1F
100
AcDbEntity
  8
0
  6
Continuous
 62
     7
370
    25
100
AcDbCircle
 10
4997.34884756443
 20
3022.389273725198
 30
0.0
 40
1.000003620325907
100
AcDbArc
 50
150.7178840388401
 51
288.0755257223848
  0
ARC
  5
233
330
1F
100
AcDbEntity
  8
0
  6
Continuous
 62
     7
370
    25
100
AcDbCircle
 10
4997.846999978627
 20
3020.862966996866
 30
0.0
 40
0.6055392961748689
100
AcDbArc
 50
333.8569518385036
 51
108.0755257223024
  0
ARC
  5
234
330
1F
100
AcDbEntity
  8
0
  6
Continuous
 62
     7
370
    25
100
AcDbCircle
 10
5058.105753273518
 20
3106.592914071909
 30
0.0
 40
0.500000000000104
100
AcDbArc
 50
2.860666330835674
 51
59.99999918875076
  0
LINE
  5
235
330
1F
100
AcDbEntity
  8
0
  6
Continuous
 62
     7
370
    25
100
AcDbLine
 10
5058.355753279649
 20
3107.025926770261
 30
0.0
 11
5057.942401068979
 21
3107.264575788165
 31
0.0
  0
ARC
  5
236
330
1F
100
AcDbEntity
  8
0
  6
Continuous
 62
     7
370
    25
100
AcDbCircle
 10
5058.098717033466
 20
3107.849591403893
 30
0.0
 40
0.6055393888091701
100
AcDbArc
 50
182.5072709033226
 51
255.0400766100198
  0
ARC
  5
237
330
1F
100
AcDbEntity
  8
0
  6
Continuous
 62
     7
370
    25
100
AcDbCircle
 10
5056.494711140551
 20
3107.779355054746
 30
0.0
 40
1.000003525362444
100
AcDbArc
 50
2.507270903307956
 51
139.8649123615298
  0
ARC
  5
238
330
1F
100
AcDbEntity
  8
0
  6
Continuous
 62
     7
370
    25
100
AcDbCircle
 10
5055.267230552184
 20
3108.814275083382
 30
0.0
 40
0.6055393923112648
100
AcDbArc
 50
185.6463386485904
 51
319.8649123615088
  0
ARC
  5
239
330
1F
100
AcDbEntity
  8
0
  6
Continuous
 62
     7
370
    25
100
AcDbCircle
 10
5053.669477482837
 20
3108.656309296316
 30
0.0
 40
1.000003525363132
100
AcDbArc
 50
5.646338648553061
 51
143.0039801595164
  0
ARC
  5
23A
330
1F
100
AcDbEntity
  8
0
  6
Continuous
 62
     7
370
    25
100
AcDbCircle
 10
5052.387166777296
 20
3109.622460068686
 30
0.0
 40
0.6055393923112853
100
AcDbArc
 50
188.7854064465426
 51
323.0039801594523
  0
ARC
  5
23B
330
1F
100
AcDbEntity
  8
0
  6
Continuous
 62
     7
370
    25
100
AcDbCircle
 10
5050.800461187752
 20
3109.377238877508
 30
0.0
 40
1.000003525362787
100
AcDbArc
 50
8.785406446570721
 51
146.1430479574574
  0
ARC
  5
23C
330
1F
100
AcDbEntity
  8
0
  6
Continuous
 62
     7
370
    25
100
AcDbCircle
 10
5049.46716841551
 20
3110.271721098673
 30
0.0
 40
0.6055393923114374
100
AcDbArc
 50
191.9244742445016
 51
326.1430479574873
  0
ARC
  5
23D
330
1F
100
AcDbEntity
  8
0
  6
Continuous
 62
     7
370
    25
100
AcDbCircle
 10
5047.89627180637
 20
3109.939980380825
 30
0.0
 40
1.000003525362954
100
AcDbArc
 50
11.9244742445276
 51
149.2821157554551
  0
ARC
  5
23E
330
1F
100
AcDbEntity
  8
0
  6
Continuous
 62
     7
370
    25
100
AcDbCircle
 10
5046.515998008561
 20
3110.760109824009
 30
0.0
 40
0.605539392311785
100
AcDbArc
 50
195.0635420424368
 51
329.2821157554089
  0
ARC
  5
23F
330
1F
100
AcDbEntity
  8
0
  6
Continuous
 62
     7
370
    25
100
AcDbCircle
 10
5044.96562443969
 20
3110.342845090968
 30
0.0
 40
1.000003525362039
100
AcDbArc
 50
15.06354204244905
 51
152.4211835534255
  0
ARC
  5
240
330
1F
100
AcDbEntity
  8
0
  6
Continuous
 62
     7
370
    25
100
AcDbCircle
 10
5043.542511641502
 20
3111.086160652572
 30
0.0
 40
0.6055393923111053
100
AcDbArc
 50
198.2026098403892
 51
332.4211835534539
  0
ARC
  5
241
330
1F
100
AcDbEntity
  8
0
  6
Continuous
 62
     7
370
    25
100
AcDbCircle
 10
5042.017313585754
 20
3110.584624062452
 30
0.0
 40
1.000003525361774
100
AcDbArc
 50
18.20260984042061
 51
155.5602513514125
  0
ARC
  5
242
330
1F
100
AcDbEntity
  8
0
  6
Continuous
 62
     7
370
    25
100
AcDbCircle
 10
5040.555632366733
 20
3111.248895147517
 30
0.0
 40
0.6055393923124369
100
AcDbArc
 50
201.3416762182143
 51
335.5602513514294
  0
ARC
  5
243
330
1F
100
AcDbEntity
  8
0
  6
Continuous
 62
     7
370
    25
100
AcDbCircle
 10
5039.060186639001
 20
3110.664591747456
 30
0.0
 40
1.000003627330634
100
AcDbArc
 50
21.34167621811288
 51
88.89298711205197
  0
ARC
  5
244
330
1F
100
AcDbEntity
  8
0
  6
Continuous
 62
     7
370
    25
100
AcDbCircle
 10
5039.098826419698
 20
3110.664591751059
 30
0.0
 40
1.00000362382765
100
AcDbArc
 50
91.10701318812598
 51
158.6583223795104
  0
ARC
  5
245
330
1F
100
AcDbEntity
  8
0
  6
Continuous
 62
     7
370
    25
100
AcDbCircle
 10
5037.603380801241
 20
3111.248895150611
 30
0.0
 40
0.6055392938462073
100
AcDbArc
 50
204.4397485284553
 51
338.6583223796329
  0
ARC
  5
246
330
1F
100
AcDbEntity
  8
0
  6
Continuous
 62
     7
370
    25
100
AcDbCircle
 10
5036.14169958083
 20
3110.584624068612
 30
0.0
 40
1.000003623827866
100
AcDbArc
 50
24.43974852843489
 51
161.7973900395018
  0
ARC
  5
247
330
1F
100
AcDbEntity
  8
0
  6
Continuous
 62
     7
370
    25
100
AcDbCircle
 10
5034.616501526131
 20
3111.08616066193
 30
0.0
 40
0.6055392938458906
100
AcDbArc
 50
207.5788163264971
 51
341.7973900394729
  0
ARC
  5
248
330
1F
100
AcDbEntity
  8
0
  6
Continuous
 62
     7
370
    25
100
AcDbCircle
 10
5033.193388726385
 20
3110.342845103308
 30
0.0
 40
1.000003623827852
100
AcDbArc
 50
27.57881632646615
 51
164.9364578374168
  0
ARC
  5
249
330
1F
100
AcDbEntity
  8
0
  6
Continuous
 62
     7
370
    25
100
AcDbCircle
 10
5031.64301515839
 20
3110.7601098396
 30
0.0
 40
0.6055392938462601
100
AcDbArc
 50
210.7178841243989
 51
344.9364578374056
  0
ARC
  5
24A
330
1F
100
AcDbEntity
  8
0
  6
Continuous
 62
     7
370
    25
100
AcDbCircle
 10
5030.262741358861
 20
3109.939980399311
 30
0.0
 40
1.000003623827915
100
AcDbArc
 50
30.7178841243973
 51
168.075525635379
  0
ARC
  5
24B
330
1F
100
AcDbEntity
  8
0
  6
Continuous
 62
     7
370
    25
100
AcDbCircle
 10
5028.691844750415
 20
3110.271721120452
 30
0.0
 40
0.6055392938464941
100
AcDbArc
 50
213.8569519201678
 51
348.0755256353987
  0
ARC
  5
24C
330
1F
100
AcDbEntity
  8
0
  6
Continuous
 62
     7
370
    25
100
AcDbCircle
 10
5027.358551976129
 20
3109.377238902045
 30
0.0
 40
1.000003623989908
100
AcDbArc
 50
33.85695192013712
 51
171.2146909668753
  0
ARC
  5
24D
330
1F
100
AcDbEntity
  8
0
  6
Continuous
 62
     7
370
    25
100
AcDbCircle
 10
5025.7718471101
 20
3109.622457219279
 30
0.0
 40
0.6055381397111544
100
AcDbArc
 50
216.9959221894956
 51
351.2146909669182
  0
ARC
  5
24E
330
1F
100
AcDbEntity
  8
0
  6
Continuous
 62
     7
370
    25
100
AcDbCircle
 10
5024.489535679703
 20
3108.656309326906
 30
0.0
 40
1.0000036238279
100
AcDbArc
 50
36.99592218946313
 51
174.3536612313374
  0
ARC
  5
24F
330
1F
100
AcDbEntity
  8
0
  6
Continuous
 62
     7
370
    25
100
AcDbCircle
 10
5022.891782610688
 20
3108.814275117321
 30
0.0
 40
0.6055392938458513
100
AcDbArc
 50
220.1350874696003
 51
354.3536612312669
  0
ARC
  5
250
330
1F
100
AcDbEntity
  8
0
  6
Continuous
 62
     7
370
    25
100
AcDbCircle
 10
5021.664302016592
 20
3107.779355090045
 30
0.0
 40
1.000003627330035
100
AcDbArc
 50
40.13508746957939
 51
177.4968951245829
  0
ARC
  5
251
330
1F
100
AcDbEntity
  8
0
  6
Continuous
 62
     7
370
    25
100
AcDbCircle
 10
5020.060292066019
 20
3107.849474764603
 30
0.0
 40
0.6055382407943312
100
AcDbArc
 50
284.9242628569665
 51
357.4968951246671
  0
LINE
  5
252
330
1F
100
AcDbEntity
  8
0
  6
Continuous
 62
     7
370
    25
100
AcDbLine
 10
5020.216243594548
 20
3107.264363081406
 30
0.0
 11
5019.803259783863
 21
3107.025926767136
 31
0.0
  0
ARC
  5
253
330
1F
100
AcDbEntity
  8
0
  6
Continuous
 62
     7
370
    25
100
AcDbCircle
 10
5020.053259783861
 20
3106.592914065243
 30
0.0
 40
0.500000000000177
100
AcDbArc
 50
119.9999999998679
 51
177.1393327190533
  0
ARC
  5
254
330
1F
100
AcDbEntity
  8
0
  6
Continuous
 62
     7
370
    25
100
AcDbCircle
 10
5005.352232802047
 20
3098.105272188788
 30
0.0
 40
0.4999999999999641
100
AcDbArc
 50
62.8606663265797
 51
119.999999999894
  0
LINE
  5
255
330
1F
100
AcDbEntity
  8
0
  6
Continuous
 62
     7
370
    25
100
AcDbLine
 10
5005.102232802048
 20
3098.53828489068
 30
0.0
 11
5004.688880595703
 21
3098.299635883078
 31
0.0
  0
ARC
  5
256
330
1F
100
AcDbEntity
  8
0
  6
Continuous
 62
     7
370
    25
100
AcDbCircle
 10
5004.26040019401
 20
3098.727517293057
 30
0.0
 40
0.6055393923115295
100
AcDbArc
 50
242.5072707329943
 51
315.040076158332
  0
ARC
  5
257
330
1F
100
AcDbEntity
  8
0
  6
Continuous
 62
     7
370
    25
100
AcDbCircle
 10
5003.519223704332
 20
3097.303289266495
 30
0.0
 40
1.000003525363431
100
AcDbArc
 50
62.50727073297717
 51
199.8649123614974
  0
ARC
  5
258
330
1F
100
AcDbEntity
  8
0
  6
Continuous
 62
     7
370
    25
100
AcDbCircle
 10
5002.009216374465
 20
3096.757719908635
 30
0.0
 40
0.6055393923119823
100
AcDbArc
 50
245.6463386484959
 51
19.86491236153309
  0
ARC
  5
259
330
1F
100
AcDbEntity
  8
0
  6
Continuous
 62
     7
370
    25
100
AcDbCircle
 10
5001.347142224318
 20
3095.295042268073
 30
0.0
 40
1.000003525362635
100
AcDbArc
 50
65.64633864859532
 51
203.0039801594508
  0
ARC
  5
25A
330
1F
100
AcDbEntity
  8
0
  6
Continuous
 62
     7
370
    25
100
AcDbCircle
 10
4999.86927575879
 20
3094.667604007715
 30
0.0
 40
0.6055393923112547
100
AcDbArc
 50
248.7854064466095
 51
23.00398015949145
  0
ARC
  5
25B
330
1F
100
AcDbEntity
  8
0
  6
Continuous
 62
     7
370
    25
100
AcDbCircle
 10
4999.288290745124
 20
3093.170866063255
 30
0.0
 40
1.000003525362482
100
AcDbArc
 50
68.7854064465286
 51
206.1430479574284
  0
ARC
  5
25C
330
1F
100
AcDbEntity
  8
0
  6
Continuous
 62
     7
370
    25
100
AcDbCircle
 10
4997.847000032241
 20
3092.463441762394
 30
0.0
 40
0.6055393923114175
100
AcDbArc
 50
251.924474244542
 51
26.14304795747516
  0
ARC
  5
25D
330
1F
100
AcDbEntity
  8
0
  6
Continuous
 62
     7
370
    25
100
AcDbCircle
 10
4997.348847616797
 20
3090.937135033234
 30
0.0
 40
1.000003525362286
100
AcDbArc
 50
71.92447424448947
 51
209.2821157554479
  0
ARC
  5
25E
330
1F
100
AcDbEntity
  8
0
  6
Continuous
 62
     7
370
    25
100
AcDbCircle
 10
4995.948457785704
 20
3090.151847581747
 30
0.0
 40
0.6055393923117417
100
AcDbArc
 50
255.0635420425267
 51
29.28211575538425
  0
ARC
  5
25F
330
1F
100
AcDbEntity
  8
0
  6
Continuous
 62
     7
370
    25
100
AcDbCircle
 10
4995.534632860185
 20
3088.600552319228
 30
0.0
 40
1.000003525362177
100
AcDbArc
 50
75.06354204242609
 51
212.4211835534172
  0
ARC
  5
260
330
1F
100
AcDbEntity
  8
0
  6
Continuous
 62
     7
370
    25
100
AcDbCircle
 10
4994.179346301714
 20
3087.739758264349
 30
0.0
 40
0.6055393923105518
100
AcDbArc
 50
258.2026098403939
 51
32.42118355344503
  0
ARC
  5
261
330
1F
100
AcDbEntity
  8
0
  6
Continuous
 62
     7
370
    25
100
AcDbCircle
 10
4993.851090701812
 20
3086.168129707208
 30
0.0
 40
1.000003525361607
100
AcDbArc
 50
78.20260984041509
 51
215.5602513514289
  0
ARC
  5
262
330
1F
100
AcDbEntity
  8
0
  6
Continuous
 62
     7
370
    25
100
AcDbCircle
 10
4992.544974457636
 20
3085.234412181835
 30
0.0
 40
0.6055393923123742
100
AcDbArc
 50
261.3416764000161
 51
35.56025135140902
  0
ARC
  5
263
330
1F
100
AcDbEntity
  8
0
  6
Continuous
 62
     7
370
    25
100
AcDbCircle
 10
4992.303273187335
 20
3083.647166494499
 30
0.0
 40
1.000003623627189
100
AcDbArc
 50
81.34167640002674
 51
148.8929874040943
  0
ARC
  5
264
330
1F
100
AcDbEntity
  8
0
  6
Continuous
 62
     7
370
    25
100
AcDbCircle
 10
4992.322593069505
 20
3083.680629518811
 30
0.0
 40
1.000003620325798
100
AcDbArc
 50
151.1070128880527
 51
218.6583221927082
  0
ARC
  5
265
330
1F
100
AcDbEntity
  8
0
  6
Continuous
 62
     7
370
    25
100
AcDbCircle
 10
4991.06884867221
 20
3082.677687329302
 30
0.0
 40
0.6055392938448052
100
AcDbArc
 50
264.4397485283795
 51
38.6583221926937
  0
ARC
  5
266
330
1F
100
AcDbEntity
  8
0
  6
Continuous
 62
     7
370
    25
100
AcDbCircle
 10
4990.913283694015
 20
3081.07969871919
 30
0.0
 40
1.000003623827507
100
AcDbArc
 50
84.43974852846647
 51
221.7973900394572
  0
ARC
  5
267
330
1F
100
AcDbEntity
  8
0
  6
Continuous
 62
     7
370
    25
100
AcDbCircle
 10
4989.716341235925
 20
3080.009606754679
 30
0.0
 40
0.6055392938460026
100
AcDbArc
 50
267.5788163264239
 51
41.79739003949157
  0
ARC
  5
268
330
1F
100
AcDbEntity
  8
0
  6
Continuous
 62
     7
370
    25
100
AcDbCircle
 10
4989.648514992845
 20
3078.405497138338
 30
0.0
 40
1.000003623826932
100
AcDbArc
 50
87.57881632641081
 51
224.9364578374034
  0
ARC
  5
269
330
1F
100
AcDbEntity
  8
0
  6
Continuous
 62
     7
370
    25
100
AcDbCircle
 10
4988.511966347116
 20
3077.271466611243
 30
0.0
 40
0.6055392938467371
100
AcDbArc
 50
270.7178841243266
 51
44.93645783746921
  0
ARC
  5
26A
330
1F
100
AcDbEntity
  8
0
  6
Continuous
 62
     7
370
    25
100
AcDbCircle
 10
4988.532082377034
 20
3075.66604971653
 30
0.0
 40
1.000003623827485
100
AcDbArc
 50
90.71788412447395
 51
228.0755256353576
  0
ARC
  5
26B
330
1F
100
AcDbEntity
  8
0
  6
Continuous
 62
     7
370
    25
100
AcDbCircle
 10
4987.459338180832
 20
3074.471483707468
 30
0.0
 40
0.6055392938459513
100
AcDbArc
 50
273.856951920245
 51
48.07552563535222
  0
ARC
  5
26C
330
1F
100
AcDbEntity
  8
0
  6
Continuous
 62
     7
370
    25
100
AcDbCircle
 10
4987.567336118065
 20
3072.869577185049
 30
0.0
 40
1.000003623990142
100
AcDbArc
 50
93.85695192014422
 51
231.2146909668632
  0
ARC
  5
26D
330
1F
100
AcDbEntity
  8
0
  6
Continuous
 62
     7
370
    25
100
AcDbCircle
 10
4986.561618392851
 20
3071.618059621377
 30
0.0
 40
0.6055381397108829
100
AcDbArc
 50
276.9959221894786
 51
51.21469096684883
  0
ARC
  5
26E
330
1F
100
AcDbEntity
  8
0
  6
Continuous
 62
     7
370
    25
100
AcDbCircle
 10
4986.757171296261
 20
3070.024471400904
 30
0.0
 40
1.000003623826779
100
AcDbArc
 50
96.99592218952121
 51
234.3536612313049
  0
ARC
  5
26F
330
1F
100
AcDbEntity
  8
0
  6
Continuous
 62
     7
370
    25
100
AcDbCircle
 10
4985.821492374325
 20
3068.71975954937
 30
0.0
 40
0.6055392938465421
100
AcDbArc
 50
280.1350874695393
 51
54.35366123133835
  0
ARC
  5
270
330
1F
100
AcDbEntity
  8
0
  6
Continuous
 62
     7
370
    25
100
AcDbCircle
 10
4986.104019111781
 20
3067.139270158592
 30
0.0
 40
1.000003627329382
100
AcDbArc
 50
100.1350874695435
 51
237.496895124602
  0
ARC
  5
271
330
1F
100
AcDbEntity
  8
0
  6
Continuous
 62
     7
370
    25
100
AcDbCircle
 10
4985.241288717023
 20
3065.785216630752
 30
0.0
 40
0.6055382407945459
100
AcDbArc
 50
344.9242628569661
 51
57.49689512463324
  0
LINE
  5
272
330
1F
100
AcDbEntity
  8
0
  6
Continuous
 62
     7
370
    25
100
AcDbLine
 10
4985.825986062987
 20
3065.627718774619
 30
0.0
 11
4985.825986062987
 21
3065.150846146077
 31
0.0
  0
ARC
  5
273
330
1F
100
AcDbEntity
  8
0
  6
Continuous
 62
     7
370
    25
100
AcDbCircle
 10
4986.325986062988
 20
3065.150846146077
 30
0.0
 40
0.5000000000006383
100
AcDbArc
 50
180.0
 51
237.1393327255388
  0
ARC
  5
274
330
1F
100
AcDbEntity
  8
0
  6
Continuous
 62
     7
370
    25
100
AcDbCircle
 10
4986.325986055319
 20
3048.175562379877
 30
0.0
 40
0.5000000000002695
100
AcDbArc
 50
122.8606663198714
 51
180.0
  0
LINE
  5
275
330
1F
100
AcDbEntity
  8
0
  6
Continuous
 62
     7
370
    25
100
AcDbLine
 10
4985.82598605532
 20
3048.175562379877
 30
0.0
 11
4985.82598605532
 21
3047.698264364672
 31
0.0
  0
ARC
  5
276
330
1F
100
AcDbEntity
  8
0
  6
Continuous
 62
     7
370
    25
100
AcDbCircle
 10
4985.241189652193
 20
3047.541130273748
 30
0.0
 40
0.6055393923109536
100
AcDbArc
 50
302.5072727858648
 51
15.04006469758537
  0
ARC
  5
277
330
1F
100
AcDbEntity
  8
0
  6
Continuous
 62
     7
370
    25
100
AcDbCircle
 10
4986.104019107651
 20
3046.187138622634
 30
0.0
 40
1.000003525362484
100
AcDbArc
 50
122.5072727858987
 51
259.8649123615556
  0
ARC
  5
278
330
1F
100
AcDbEntity
  8
0
  6
Continuous
 62
     7
370
    25
100
AcDbCircle
 10
4985.821492366151
 20
3044.606649236137
 30
0.0
 40
0.605539392311096
100
AcDbArc
 50
305.6463386485095
 51
79.86491236147717
  0
ARC
  5
279
330
1F
100
AcDbEntity
  8
0
  6
Continuous
 62
     7
370
    25
100
AcDbCircle
 10
4986.757171285352
 20
3043.30193738264
 30
0.0
 40
1.000003525362817
100
AcDbArc
 50
125.6463386485976
 51
263.0039801595119
  0
ARC
  5
27A
330
1F
100
AcDbEntity
  8
0
  6
Continuous
 62
     7
370
    25
100
AcDbCircle
 10
4986.561615525364
 20
3041.708348349914
 30
0.0
 40
0.6055393923113125
100
AcDbArc
 50
308.7854064465115
 51
83.00398015947509
  0
ARC
  5
27B
330
1F
100
AcDbEntity
  8
0
  6
Continuous
 62
     7
370
    25
100
AcDbCircle
 10
4988.532082354298
 20
3037.660359063293
 30
0.0
 40
1.000003525362562
100
AcDbArc
 50
131.9244742444916
 51
269.2821198997559
  0
ARC
  5
27C
330
1F
100
AcDbEntity
  8
0
  6
Continuous
 62
     7
370
    25
100
AcDbCircle
 10
4988.511966436245
 20
3036.05494209606
 30
0.0
 40
0.6055394634226316
100
AcDbArc
 50
315.0635395507628
 51
89.28211989970838
  0
ARC
  5
27D
330
1F
100
AcDbEntity
  8
0
  6
Continuous
 62
     7
370
    25
100
AcDbCircle
 10
4989.648515008436
 20
3034.920911538949
 30
0.0
 40
1.000003423395668
100
AcDbArc
 50
135.063539550676
 51
272.4211862774468
  0
ARC
  5
27E
330
1F
100
AcDbEntity
  8
0
  6
Continuous
 62
     7
370
    25
100
AcDbCircle
 10
5055.267230565676
 20
3004.512133589363
 30
0.0
 40
0.6055391918789104
100
AcDbArc
 50
40.13508900596402
 51
174.3536612986609
  0
ARC
  5
27F
330
1F
100
AcDbEntity
  8
0
  6
Continuous
 62
     7
370
    25
100
AcDbCircle
 10
5056.494711054064
 20
3005.547053583826
 30
0.0
 40
1.000003627329623
100
AcDbArc
 50
220.1350890060083
 51
357.4968951245837
  0
ARC
  5
280
330
1F
100
AcDbEntity
  8
0
  6
Continuous
 62
     7
370
    25
100
AcDbCircle
 10
5058.098721004638
 20
3005.476933909267
 30
0.0
 40
0.6055382407952795
100
AcDbArc
 50
104.9242628570267
 51
177.4968951245841
  0
LINE
  5
281
330
1F
100
AcDbEntity
  8
0
  6
Continuous
 62
     7
370
    25
100
AcDbLine
 10
5057.942769476107
 20
3006.062045592465
 30
0.0
 11
5058.355753286794
 21
3006.300481906736
 31
0.0
  0
ARC
  5
282
330
1F
100
AcDbEntity
  8
0
  6
Continuous
 62
     7
370
    25
100
AcDbCircle
 10
5058.105753286794
 20
3006.733494608628
 30
0.0
 40
0.5000000000002989
100
AcDbArc
 50
300.0000000001014
 51
357.1393162003786
  0
ARC
  5
283
330
1F
100
AcDbEntity
  8
0
  6
Continuous
 62
     7
370
    25
100
AcDbCircle
 10
4999.288290688228
 20
3020.155542691247
 30
0.0
 40
1.000003620649109
100
AcDbArc
 50
153.8569518385269
 51
291.2146910626823
  0
ARC
  5
284
330
1F
100
AcDbEntity
  8
0
  6
Continuous
 62
     7
370
    25
100
AcDbCircle
 10
4999.869277831223
 20
3018.658806812148
 30
0.0
 40
0.6055381421541087
100
AcDbArc
 50
336.9959221038955
 51
111.2146910626983
  0
ARC
  5
285
330
1F
100
AcDbEntity
  8
0
  6
Continuous
 62
     7
370
    25
100
AcDbCircle
 10
5001.347142163117
 20
3018.031366482255
 30
0.0
 40
1.000003620325432
100
AcDbArc
 50
156.9959221039508
 51
294.3536611825098
  0
ARC
  5
286
330
1F
100
AcDbEntity
  8
0
  6
Continuous
 62
     7
370
    25
100
AcDbCircle
 10
5002.009216307508
 20
3016.568688842933
 30
0.0
 40
0.6055392938463388
100
AcDbArc
 50
340.1350874695829
 51
114.353661182591
  0
ARC
  5
287
330
1F
100
AcDbEntity
  8
0
  6
Continuous
 62
     7
370
    25
100
AcDbCircle
 10
5003.519223639061
 20
3016.02311947943
 30
0.0
 40
1.00000362733013
100
AcDbArc
 50
160.1350874695448
 51
297.496895124598
  0
ARC
  5
288
330
1F
100
AcDbEntity
  8
0
  6
Continuous
 62
     7
370
    25
100
AcDbCircle
 10
5004.260503194875
 20
3014.598946277031
 30
0.0
 40
0.6055382407938627
100
AcDbArc
 50
44.92426285687645
 51
117.4968951245572
  0
LINE
  5
289
330
1F
100
AcDbEntity
  8
0
  6
Continuous
 62
     7
370
    25
100
AcDbLine
 10
5004.68924901231
 20
3015.026560104095
 30
0.0
 11
5005.102232822997
 21
3014.788123789824
 31
0.0
  0
ARC
  5
28A
330
1F
100
AcDbEntity
  8
0
  6
Continuous
 62
     7
370
    25
100
AcDbCircle
 10
5005.352232822997
 20
3015.221136491716
 30
0.0
 40
0.5000000000002989
100
AcDbArc
 50
239.9999999999002
 51
297.1393168750974
  0
ARC
  5
28B
330
1F
100
AcDbEntity
  8
0
  6
Continuous
 62
     7
370
    25
100
AcDbCircle
 10
5020.053259797141
 20
3006.733494601971
 30
0.0
 40
0.500000000000238
100
AcDbArc
 50
182.8606844048566
 51
240.0000000000165
  0
LINE
  5
28C
330
1F
100
AcDbEntity
  8
0
  6
Continuous
 62
     7
370
    25
100
AcDbLine
 10
5019.80325979714
 20
3006.300481900078
 30
0.0
 11
5020.216612003484
 21
3006.061832892475
 31
0.0
  0
ARC
  5
28D
330
1F
100
AcDbEntity
  8
0
  6
Continuous
 62
     7
370
    25
100
AcDbCircle
 10
5020.060296269623
 20
3005.47681724318
 30
0.0
 40
0.605539361704313
100
AcDbArc
 50
2.507270752685551
 51
75.04009851200942
  0
ARC
  5
28E
330
1F
100
AcDbEntity
  8
0
  6
Continuous
 62
     7
370
    25
100
AcDbCircle
 10
5021.664302037272
 20
3005.547053582616
 30
0.0
 40
1.000003426897443
100
AcDbArc
 50
182.507270752678
 51
319.8649124816625
  0
ARC
  5
28F
330
1F
100
AcDbEntity
  8
0
  6
Continuous
 62
     7
370
    25
100
AcDbCircle
 10
5022.891782627811
 20
3004.512133556553
 30
0.0
 40
0.6055394907765323
100
AcDbArc
 50
5.646338768634191
 51
139.8649124816536
  0
ARC
  5
290
330
1F
100
AcDbEntity
  8
0
  6
Continuous
 62
     7
370
    25
100
AcDbCircle
 10
5024.489535696826
 20
3004.670099346967
 30
0.0
 40
1.0000034268972
100
AcDbArc
 50
185.6463387686719
 51
323.0039802796563
  0
ARC
  5
291
330
1F
100
AcDbEntity
  8
0
  6
Continuous
 62
     7
370
    25
100
AcDbCircle
 10
5025.771846404393
 20
3003.703948577288
 30
0.0
 40
0.6055394907765005
100
AcDbArc
 50
8.785406566663647
 51
143.0039802796128
  0
ARC
  5
292
330
1F
100
AcDbEntity
  8
0
  6
Continuous
 62
     7
370
    25
100
AcDbCircle
 10
5027.358551993424
 20
3003.949169771791
 30
0.0
 40
1.000003426898774
100
AcDbArc
 50
188.7854065666189
 51
326.1430480775759
  0
ARC
  5
293
330
1F
100
AcDbEntity
  8
0
  6
Continuous
 62
     7
370
    25
100
AcDbCircle
 10
5028.691844767539
 20
3003.054687553421
 30
0.0
 40
0.6055394907762301
100
AcDbArc
 50
11.92447436463051
 51
146.1430480775277
  0
ARC
  5
294
330
1F
100
AcDbEntity
  8
0
  6
Continuous
 62
     7
370
    25
100
AcDbCircle
 10
5030.262741375985
 20
3003.386428274562
 30
0.0
 40
1.00000342689797
100
AcDbArc
 50
191.9244743646046
 51
329.2821158755541
  0
ARC
  5
295
330
1F
100
AcDbEntity
  8
0
  6
Continuous
 62
     7
370
    25
100
AcDbCircle
 10
5031.643015175513
 20
3002.566298834272
 30
0.0
 40
0.605539490776453
100
AcDbArc
 50
15.06354216261209
 51
149.2821158755655
  0
ARC
  5
296
330
1F
100
AcDbEntity
  8
0
  6
Continuous
 62
     7
370
    25
100
AcDbCircle
 10
5033.193388743509
 20
3002.983563570564
 30
0.0
 40
1.000003426897411
100
AcDbArc
 50
195.0635421625737
 51
332.4211836735539
  0
ARC
  5
297
330
1F
100
AcDbEntity
  8
0
  6
Continuous
 62
     7
370
    25
100
AcDbCircle
 10
5034.616501543255
 20
3002.240248011943
 30
0.0
 40
0.6055394907755738
100
AcDbArc
 50
18.20260996051628
 51
152.4211836735501
  0
ARC
  5
298
330
1F
100
AcDbEntity
  8
0
  6
Continuous
 62
     7
370
    25
100
AcDbCircle
 10
5036.141699597952
 20
3002.741784605261
 30
0.0
 40
1.00000342689752
100
AcDbArc
 50
198.2026099605471
 51
335.5602499351586
  0
ARC
  5
299
330
1F
100
AcDbEntity
  8
0
  6
Continuous
 62
     7
370
    25
100
AcDbCircle
 10
5037.603380707722
 20
3002.077513526253
 30
0.0
 40
0.6055393888089351
100
AcDbArc
 50
21.34167645279553
 51
155.5602499351726
  0
ARC
  5
29A
330
1F
100
AcDbEntity
  8
0
  6
Continuous
 62
     7
370
    25
100
AcDbCircle
 10
5039.098826426351
 20
3002.661816929816
 30
0.0
 40
1.000003623627863
100
AcDbArc
 50
201.341676452789
 51
268.8929874041505
  0
ARC
  5
29B
330
1F
100
AcDbEntity
  8
0
  6
Continuous
 62
     7
370
    25
100
AcDbCircle
 10
5039.060186806583
 20
3002.66181703131
 30
0.0
 40
1.000003722292446
100
AcDbArc
 50
271.107004153085
 51
338.6583183412304
  0
ARC
  5
29C
330
1F
100
AcDbEntity
  8
0
  6
Continuous
 62
     7
370
    25
100
AcDbCircle
 10
5040.555632383857
 20
3002.077513526355
 30
0.0
 40
0.6055391953808616
100
AcDbArc
 50
24.4397486485887
 51
158.6583183412636
  0
ARC
  5
29D
330
1F
100
AcDbEntity
  8
0
  6
Continuous
 62
     7
370
    25
100
AcDbCircle
 10
5042.017313602877
 20
3002.741784611421
 30
0.0
 40
1.000003722291926
100
AcDbArc
 50
204.4397486485994
 51
341.7973901595625
  0
ARC
  5
29E
330
1F
100
AcDbEntity
  8
0
  6
Continuous
 62
     7
370
    25
100
AcDbCircle
 10
5043.542511658625
 20
3002.2402480213
 30
0.0
 40
0.6055391953824318
100
AcDbArc
 50
27.57881644651364
 51
161.797390159614
  0
ARC
  5
29F
330
1F
100
AcDbEntity
  8
0
  6
Continuous
 62
     7
370
    25
100
AcDbCircle
 10
5044.965624456814
 20
3002.983563582904
 30
0.0
 40
1.00000372229173
100
AcDbArc
 50
207.5788164465703
 51
344.9364579575396
  0
ARC
  5
2A0
330
1F
100
AcDbEntity
  8
0
  6
Continuous
 62
     7
370
    25
100
AcDbCircle
 10
5046.515998025685
 20
3002.566298849863
 30
0.0
 40
0.6055391953833274
100
AcDbArc
 50
30.71788424455561
 51
164.9364579575426
  0
ARC
  5
2A1
330
1F
100
AcDbEntity
  8
0
  6
Continuous
 62
     7
370
    25
100
AcDbCircle
 10
5047.896271823493
 20
3003.386428293048
 30
0.0
 40
1.000003722292581
100
AcDbArc
 50
210.7178842445676
 51
348.0755257530392
  0
ARC
  5
2A2
330
1F
100
AcDbEntity
  8
0
  6
Continuous
 62
     7
370
    25
100
AcDbCircle
 10
5049.467168432461
 20
3003.054687575165
 30
0.0
 40
0.6055391952191066
100
AcDbArc
 50
33.85695205242576
 51
168.075525753025
  0
ARC
  5
2A3
330
1F
100
AcDbEntity
  8
0
  6
Continuous
 62
     7
370
    25
100
AcDbCircle
 10
5050.800461203951
 20
3003.949169796158
 30
0.0
 40
1.000003721733985
100
AcDbArc
 50
213.8569520524006
 51
351.2146910881714
  0
ARC
  5
2A4
330
1F
100
AcDbEntity
  8
0
  6
Continuous
 62
     7
370
    25
100
AcDbCircle
 10
5052.387166070658
 20
3003.703951482258
 30
0.0
 40
0.6055380421296445
100
AcDbArc
 50
36.99592229639323
 51
171.2146910881756
  0
ARC
  5
2A5
330
1F
100
AcDbEntity
  8
0
  6
Continuous
 62
     7
370
    25
100
AcDbCircle
 10
5053.669477499958
 20
3004.670099377555
 30
0.0
 40
1.000003722293447
100
AcDbArc
 50
216.9959222963665
 51
354.3536612986766
  0
ARC
  5
2A6
330
1F
100
AcDbEntity
  8
0
  6
Continuous
 62
     7
370
    25
100
AcDbCircle
 10
5072.806780268609
 20
3015.221136485085
 30
0.0
 40
0.5000000000003086
100
AcDbArc
 50
242.8606794921737
 51
299.999999188682
  0
LINE
  5
2A7
330
1F
100
AcDbEntity
  8
0
  6
Continuous
 62
     7
370
    25
100
AcDbLine
 10
5073.056780262477
 20
3014.788123779653
 30
0.0
 11
5073.470132479906
 21
3015.026772785851
 31
0.0
  0
ARC
  5
2A8
330
1F
100
AcDbEntity
  8
0
  6
Continuous
 62
     7
370
    25
100
AcDbCircle
 10
5076.811870927329
 20
3018.031366484914
 30
0.0
 40
1.000003426898378
100
AcDbArc
 50
245.6463387686326
 51
23.00398027959602
  0
ARC
  5
2A9
330
1F
100
AcDbEntity
  8
0
  6
Continuous
 62
     7
370
    25
100
AcDbCircle
 10
5078.289737391541
 20
3018.658804748371
 30
0.0
 40
0.6055394907759486
100
AcDbArc
 50
68.78540656664117
 51
203.0039802796199
  0
ARC
  5
2AA
330
1F
100
AcDbEntity
  8
0
  6
Continuous
 62
     7
370
    25
100
AcDbCircle
 10
5078.870722402069
 20
3020.15554269405
 30
0.0
 40
1.000003426897966
100
AcDbArc
 50
248.785406566642
 51
26.1430480775644
  0
ARC
  5
2AB
330
1F
100
AcDbEntity
  8
0
  6
Continuous
 62
     7
370
    25
100
AcDbCircle
 10
5073.898613052853
 20
3014.598891408018
 30
0.0
 40
0.6055394907759673
100
AcDbArc
 50
62.50727439409871
 51
135.0400897604912
  0
ARC
  5
2AC
330
1F
100
AcDbEntity
  8
0
  6
Continuous
 62
     7
370
    25
100
AcDbCircle
 10
5074.639789451524
 20
3016.023119481937
 30
0.0
 40
1.000003426898133
100
AcDbArc
 50
242.5072743940764
 51
19.86491248162904
  0
ARC
  5
2AD
330
1F
100
AcDbEntity
  8
0
  6
Continuous
 62
     7
370
    25
100
AcDbCircle
 10
5076.149796780249
 20
3016.568688842964
 30
0.0
 40
0.6055394907760722
100
AcDbArc
 50
65.64633876882894
 51
199.8649124816482
  0
ARC
  5
2AE
330
1F
100
AcDbEntity
  8
0
  6
Continuous
 62
     7
370
    25
100
AcDbCircle
 10
5080.312013113469
 20
3020.862966997932
 30
0.0
 40
0.6055394907753897
100
AcDbArc
 50
71.92447436453708
 51
206.1430480776301
  0
ARC
  5
2AF
330
1F
100
AcDbEntity
  8
0
  6
Continuous
 62
     7
370
    25
100
AcDbCircle
 10
5080.810165525714
 20
3022.389273728135
 30
0.0
 40
1.000003426897507
100
AcDbArc
 50
251.924474364649
 51
29.28211587556972
  0
ARC
  5
2B0
330
1F
100
AcDbEntity
  8
0
  6
Continuous
 62
     7
370
    25
100
AcDbCircle
 10
5082.21055535516
 20
3023.174561182559
 30
0.0
 40
0.6055394907767684
100
AcDbArc
 50
75.0635421626272
 51
209.2821158755639
  0
ARC
  5
2B1
330
1F
100
AcDbEntity
  8
0
  6
Continuous
 62
     7
370
    25
100
AcDbCircle
 10
5082.624380277426
 20
3024.725856445946
 30
0.0
 40
1.000003426898055
100
AcDbArc
 50
255.0635421626208
 51
32.42118213713641
  0
ARC
  5
2B2
330
1F
100
AcDbEntity
  8
0
  6
Continuous
 62
     7
370
    25
100
AcDbCircle
 10
5085.836419984048
 20
3083.68062951885
 30
0.0
 40
1.000003627330472
100
AcDbArc
 50
321.3416762709015
 51
28.89298711191028
  0
ARC
  5
2B3
330
1F
100
AcDbEntity
  8
0
  6
Continuous
 62
     7
370
    25
100
AcDbCircle
 10
3691.83302700502
 20
3065.150846146115
 30
0.0
 40
0.5000000000000259
100
AcDbArc
 50
302.8606654890974
 51
0.0
  0
LINE
  5
2B4
330
1F
100
AcDbEntity
  8
0
  6
Continuous
 62
     7
370
    25
100
AcDbLine
 10
3692.33302700502
 20
3065.150846146115
 30
0.0
 11
3692.33302700502
 21
3065.628144163137
 31
0.0
  0
ARC
  5
2B5
330
1F
100
AcDbEntity
  8
0
  6
Continuous
 62
     7
370
    25
100
AcDbCircle
 10
3692.917823434503
 20
3065.78527853542
 30
0.0
 40
0.6055394907760944
100
AcDbArc
 50
122.5072743940156
 51
195.0400897604326
  0
ARC
  5
2B6
330
1F
100
AcDbEntity
  8
0
  6
Continuous
 62
     7
370
    25
100
AcDbCircle
 10
3692.054993941042
 20
3067.139270162317
 30
0.0
 40
1.000003426897581
100
AcDbArc
 50
302.5072743940543
 51
79.86491248166704
  0
ARC
  5
2B7
330
1F
100
AcDbEntity
  8
0
  6
Continuous
 62
     7
370
    25
100
AcDbCircle
 10
3692.337520679229
 20
3068.719759549406
 30
0.0
 40
0.6055394907759025
100
AcDbArc
 50
125.6463387686369
 51
259.864912481639
  0
ARC
  5
2B8
330
1F
100
AcDbEntity
  8
0
  6
Continuous
 62
     7
370
    25
100
AcDbCircle
 10
3691.401841757293
 20
3070.024471400941
 30
0.0
 40
1.000003426898293
100
AcDbArc
 50
305.6463387686721
 51
83.00398027960328
  0
ARC
  5
2B9
330
1F
100
AcDbEntity
  8
0
  6
Continuous
 62
     7
370
    25
100
AcDbCircle
 10
3691.597397513938
 20
3071.618060434078
 30
0.0
 40
0.6055394907761688
100
AcDbArc
 50
128.7854065666467
 51
263.003980279647
  0
ARC
  5
2BA
330
1F
100
AcDbEntity
  8
0
  6
Continuous
 62
     7
370
    25
100
AcDbCircle
 10
3690.591676935438
 20
3072.869577185253
 30
0.0
 40
1.000003426897509
100
AcDbArc
 50
308.7854065666259
 51
86.14304807761667
  0
ARC
  5
2BB
330
1F
100
AcDbEntity
  8
0
  6
Continuous
 62
     7
370
    25
100
AcDbCircle
 10
3690.69967487272
 20
3074.471483707505
 30
0.0
 40
0.6055394907757555
100
AcDbArc
 50
131.9244743645951
 51
266.1430480775839
  0
ARC
  5
2BC
330
1F
100
AcDbEntity
  8
0
  6
Continuous
 62
     7
370
    25
100
AcDbCircle
 10
3689.626930676519
 20
3075.666049716568
 30
0.0
 40
1.00000342689855
100
AcDbArc
 50
311.9244743646237
 51
89.28211433912986
  0
ARC
  5
2BD
330
1F
100
AcDbEntity
  8
0
  6
Continuous
 62
     7
370
    25
100
AcDbCircle
 10
3689.64704674821
 20
3077.271466508783
 30
0.0
 40
0.6055393888083734
100
AcDbArc
 50
135.0635395814408
 51
269.2821143392149
  0
ARC
  5
2BE
330
1F
100
AcDbEntity
  8
0
  6
Continuous
 62
     7
370
    25
100
AcDbCircle
 10
3688.510498172652
 20
3078.405497068035
 30
0.0
 40
1.000003501904592
100
AcDbArc
 50
315.0635395814672
 51
92.42118602239235
  0
ARC
  5
2BF
330
1F
100
AcDbEntity
  8
0
  6
Continuous
 62
     7
370
    25
100
AcDbCircle
 10
3688.442671864951
 20
3080.009606654659
 30
0.0
 40
0.6055393888094861
100
AcDbArc
 50
138.2026073794218
 51
272.4211860224243
  0
ARC
  5
2C0
330
1F
100
AcDbEntity
  8
0
  6
Continuous
 62
     7
370
    25
100
AcDbCircle
 10
3687.245729475167
 20
3081.079698655123
 30
0.0
 40
1.000003501904
100
AcDbArc
 50
318.2026073793743
 51
95.56025382039965
  0
ARC
  5
2C1
330
1F
100
AcDbEntity
  8
0
  6
Continuous
 62
     7
370
    25
100
AcDbCircle
 10
3687.090164434075
 20
3082.677687232024
 30
0.0
 40
0.6055393888087595
100
AcDbArc
 50
141.3416762709127
 51
275.5602538204353
  0
ARC
  5
2C2
330
1F
100
AcDbEntity
  8
0
  6
Continuous
 62
     7
370
    25
100
AcDbCircle
 10
3685.836419984049
 20
3083.68062951885
 30
0.0
 40
1.000003627329854
100
AcDbArc
 50
321.3416762708648
 51
28.89298711190006
  0
ARC
  5
2C3
330
1F
100
AcDbEntity
  8
0
  6
Continuous
 62
     7
370
    25
100
AcDbCircle
 10
3685.85573971392
 20
3083.647166572096
 30
0.0
 40
1.000003720955552
100
AcDbArc
 50
31.10700426743436
 51
98.65831859087187
  0
ARC
  5
2C4
330
1F
100
AcDbEntity
  8
0
  6
Continuous
 62
     7
370
    25
100
AcDbCircle
 10
3685.614038597908
 20
3085.234412178632
 30
0.0
 40
0.6055391918786494
100
AcDbArc
 50
144.4397485599483
 51
278.6583185908317
  0
ARC
  5
2C5
330
1F
100
AcDbEntity
  8
0
  6
Continuous
 62
     7
370
    25
100
AcDbCircle
 10
3684.30792235593
 20
3086.168129705487
 30
0.0
 40
1.000003724868493
100
AcDbArc
 50
324.4397485599517
 51
101.7973902402617
  0
ARC
  5
2C6
330
1F
100
AcDbEntity
  8
0
  6
Continuous
 62
     7
370
    25
100
AcDbCircle
 10
3683.979666754004
 20
3087.73975826126
 30
0.0
 40
0.6055391918793279
100
AcDbArc
 50
147.5788163579238
 51
281.7973902403009
  0
ARC
  5
2C7
330
1F
100
AcDbEntity
  8
0
  6
Continuous
 62
     7
370
    25
100
AcDbCircle
 10
3682.624380197645
 20
3088.60055231774
 30
0.0
 40
1.000003724868242
100
AcDbArc
 50
327.5788163579572
 51
104.9364580381579
  0
ARC
  5
2C8
330
1F
100
AcDbEntity
  8
0
  6
Continuous
 62
     7
370
    25
100
AcDbCircle
 10
3682.210555270181
 20
3090.151847578782
 30
0.0
 40
0.6055391918804272
100
AcDbArc
 50
150.7178841559194
 51
284.9364580382608
  0
ARC
  5
2C9
330
1F
100
AcDbEntity
  8
0
  6
Continuous
 62
     7
370
    25
100
AcDbCircle
 10
3680.810165441111
 20
3090.937135031983
 30
0.0
 40
1.000003724867755
100
AcDbArc
 50
330.717884155925
 51
108.0755258361743
  0
ARC
  5
2CA
330
1F
100
AcDbEntity
  8
0
  6
Continuous
 62
     7
370
    25
100
AcDbCircle
 10
3680.312013023804
 20
3092.46344175956
 30
0.0
 40
0.6055391918792569
100
AcDbArc
 50
153.8569519678406
 51
288.075525836171
  0
ARC
  5
2CB
330
1F
100
AcDbEntity
  8
0
  6
Continuous
 62
     7
370
    25
100
AcDbCircle
 10
3678.870722313283
 20
3093.170866061594
 30
0.0
 40
1.000003724191055
100
AcDbArc
 50
333.8569519678362
 51
111.214691162722
  0
ARC
  5
2CC
330
1F
100
AcDbEntity
  8
0
  6
Continuous
 62
     7
370
    25
100
AcDbCircle
 10
3678.289735167672
 20
3094.667601939692
 30
0.0
 40
0.605538038627104
100
AcDbArc
 50
156.9959222076775
 51
291.2146911626846
  0
ARC
  5
2CD
330
1F
100
AcDbEntity
  8
0
  6
Continuous
 62
     7
370
    25
100
AcDbCircle
 10
3676.149796681881
 20
3096.757719906092
 30
0.0
 40
0.6055391918789012
100
AcDbArc
 50
160.135089005978
 51
294.3536614320887
  0
ARC
  5
2CE
330
1F
100
AcDbEntity
  8
0
  6
Continuous
 62
     7
370
    25
100
AcDbCircle
 10
3674.639789431598
 20
3097.303289194454
 30
0.0
 40
1.000003627329973
100
AcDbArc
 50
340.1350890059902
 51
117.4968951246212
  0
LINE
  5
2CF
330
1F
100
AcDbEntity
  8
0
  6
Continuous
 62
     7
370
    25
100
AcDbLine
 10
3673.469764058348
 20
3098.299848569788
 30
0.0
 11
3673.056780247662
 21
3098.538284884059
 31
0.0
  0
ARC
  5
2D0
330
1F
100
AcDbEntity
  8
0
  6
Continuous
 62
     7
370
    25
100
AcDbCircle
 10
3672.806780247662
 20
3098.105272182166
 30
0.0
 40
0.5000000000003741
100
AcDbArc
 50
60.00000000001574
 51
117.1393327155145
  0
ARC
  5
2D1
330
1F
100
AcDbEntity
  8
0
  6
Continuous
 62
     7
370
    25
100
AcDbCircle
 10
3658.105753273518
 20
3106.592914071909
 30
0.0
 40
0.4999999999997408
100
AcDbArc
 50
2.860666330002949
 51
59.99999918867958
  0
LINE
  5
2D2
330
1F
100
AcDbEntity
  8
0
  6
Continuous
 62
     7
370
    25
100
AcDbLine
 10
3658.355753279649
 20
3107.025926770261
 30
0.0
 11
3657.942401068979
 21
3107.264575788165
 31
0.0
  0
ARC
  5
2D3
330
1F
100
AcDbEntity
  8
0
  6
Continuous
 62
     7
370
    25
100
AcDbCircle
 10
3658.098717033466
 20
3107.849591403893
 30
0.0
 40
0.60553938880919
100
AcDbArc
 50
182.5072709033656
 51
255.0400766100309
  0
ARC
  5
2D4
330
1F
100
AcDbEntity
  8
0
  6
Continuous
 62
     7
370
    25
100
AcDbCircle
 10
3656.494711140551
 20
3107.779355054745
 30
0.0
 40
1.000003525362709
100
AcDbArc
 50
2.507270903333987
 51
139.8649123614899
  0
ARC
  5
2D5
330
1F
100
AcDbEntity
  8
0
  6
Continuous
 62
     7
370
    25
100
AcDbCircle
 10
3655.267230552184
 20
3108.814275083382
 30
0.0
 40
0.6055393923112648
100
AcDbArc
 50
185.6463386485904
 51
319.8649123615088
  0
ARC
  5
2D6
330
1F
100
AcDbEntity
  8
0
  6
Continuous
 62
     7
370
    25
100
AcDbCircle
 10
3653.669477482836
 20
3108.656309296316
 30
0.0
 40
1.000003525362695
100
AcDbArc
 50
5.646338648576425
 51
143.0039801594642
  0
ARC
  5
2D7
330
1F
100
AcDbEntity
  8
0
  6
Continuous
 62
     7
370
    25
100
AcDbCircle
 10
3652.387166777296
 20
3109.622460068685
 30
0.0
 40
0.6055393923113388
100
AcDbArc
 50
188.7854064465492
 51
323.0039801595125
  0
ARC
  5
2D8
330
1F
100
AcDbEntity
  8
0
  6
Continuous
 62
     7
370
    25
100
AcDbCircle
 10
3650.800461187752
 20
3109.377238877508
 30
0.0
 40
1.000003525362717
100
AcDbArc
 50
8.785406446537015
 51
146.1430479574646
  0
ARC
  5
2D9
330
1F
100
AcDbEntity
  8
0
  6
Continuous
 62
     7
370
    25
100
AcDbCircle
 10
3649.467168415511
 20
3110.271721098673
 30
0.0
 40
0.6055393923114351
100
AcDbArc
 50
191.9244742444927
 51
326.1430479574276
  0
ARC
  5
2DA
330
1F
100
AcDbEntity
  8
0
  6
Continuous
 62
     7
370
    25
100
AcDbCircle
 10
3647.896271806369
 20
3109.939980380824
 30
0.0
 40
1.000003525362795
100
AcDbArc
 50
11.92447424454771
 51
149.2821157554194
  0
ARC
  5
2DB
330
1F
100
AcDbEntity
  8
0
  6
Continuous
 62
     7
370
    25
100
AcDbCircle
 10
3646.515998008561
 20
3110.760109824009
 30
0.0
 40
0.6055393923114339
100
AcDbArc
 50
195.0635420424479
 51
329.2821157554089
  0
ARC
  5
2DC
330
1F
100
AcDbEntity
  8
0
  6
Continuous
 62
     7
370
    25
100
AcDbCircle
 10
3644.965624439691
 20
3110.342845090968
 30
0.0
 40
1.0000035253621
100
AcDbArc
 50
15.06354204244905
 51
152.4211835534376
  0
ARC
  5
2DD
330
1F
100
AcDbEntity
  8
0
  6
Continuous
 62
     7
370
    25
100
AcDbCircle
 10
3642.017313585754
 20
3110.584624062451
 30
0.0
 40
1.000003525362382
100
AcDbArc
 50
18.20260984044536
 51
155.5602513513866
  0
ARC
  5
2DE
330
1F
100
AcDbEntity
  8
0
  6
Continuous
 62
     7
370
    25
100
AcDbCircle
 10
3640.555632366734
 20
3111.248895147517
 30
0.0
 40
0.6055393923110067
100
AcDbArc
 50
201.3416762181429
 51
335.5602513514152
  0
ARC
  5
2DF
330
1F
100
AcDbEntity
  8
0
  6
Continuous
 62
     7
370
    25
100
AcDbCircle
 10
3639.060186639002
 20
3110.664591747456
 30
0.0
 40
1.000003627329786
100
AcDbArc
 50
21.34167621813185
 51
88.89298711207802
  0
ARC
  5
2E0
330
1F
100
AcDbEntity
  8
0
  6
Continuous
 62
     7
370
    25
100
AcDbCircle
 10
3639.098826419698
 20
3110.664591751058
 30
0.0
 40
1.000003623828129
100
AcDbArc
 50
91.10701318812546
 51
158.6583223795051
  0
ARC
  5
2E1
330
1F
100
AcDbEntity
  8
0
  6
Continuous
 62
     7
370
    25
100
AcDbCircle
 10
3637.603380801242
 20
3111.248895150611
 30
0.0
 40
0.6055392938456322
100
AcDbArc
 50
204.4397485284588
 51
338.6583223795702
  0
ARC
  5
2E2
330
1F
100
AcDbEntity
  8
0
  6
Continuous
 62
     7
370
    25
100
AcDbCircle
 10
3636.14169958083
 20
3110.584624068611
 30
0.0
 40
1.000003623827434
100
AcDbArc
 50
24.43974852843489
 51
161.7973900394936
  0
ARC
  5
2E3
330
1F
100
AcDbEntity
  8
0
  6
Continuous
 62
     7
370
    25
100
AcDbCircle
 10
3634.616501526132
 20
3111.086160661929
 30
0.0
 40
0.6055392938457486
100
AcDbArc
 50
207.5788163264009
 51
341.7973900395137
  0
ARC
  5
2E4
330
1F
100
AcDbEntity
  8
0
  6
Continuous
 62
     7
370
    25
100
AcDbCircle
 10
3633.193388726386
 20
3110.342845103308
 30
0.0
 40
1.000003623826856
100
AcDbArc
 50
27.57881632646615
 51
164.9364578374284
  0
ARC
  5
2E5
330
1F
100
AcDbEntity
  8
0
  6
Continuous
 62
     7
370
    25
100
AcDbCircle
 10
3631.64301515839
 20
3110.7601098396
 30
0.0
 40
0.6055392938468833
100
AcDbArc
 50
210.7178841244139
 51
344.936457837428
  0
ARC
  5
2E6
330
1F
100
AcDbEntity
  8
0
  6
Continuous
 62
     7
370
    25
100
AcDbCircle
 10
3630.262741358862
 20
3109.939980399311
 30
0.0
 40
1.00000362382706
100
AcDbArc
 50
30.71788412436581
 51
168.075525635379
  0
ARC
  5
2E7
330
1F
100
AcDbEntity
  8
0
  6
Continuous
 62
     7
370
    25
100
AcDbCircle
 10
3628.691844750417
 20
3110.271721120452
 30
0.0
 40
0.6055392938466132
100
AcDbArc
 50
213.8569519201556
 51
348.0755256353898
  0
ARC
  5
2E8
330
1F
100
AcDbEntity
  8
0
  6
Continuous
 62
     7
370
    25
100
AcDbCircle
 10
3627.358551976129
 20
3109.377238902045
 30
0.0
 40
1.00000362398953
100
AcDbArc
 50
33.85695192015163
 51
171.214690966905
  0
ARC
  5
2E9
330
1F
100
AcDbEntity
  8
0
  6
Continuous
 62
     7
370
    25
100
AcDbCircle
 10
3625.771847110101
 20
3109.622457219279
 30
0.0
 40
0.6055381397107745
100
AcDbArc
 50
216.9959221894956
 51
351.2146909668691
  0
ARC
  5
2EA
330
1F
100
AcDbEntity
  8
0
  6
Continuous
 62
     7
370
    25
100
AcDbCircle
 10
3624.489535679705
 20
3108.656309326906
 30
0.0
 40
1.000003623827323
100
AcDbArc
 50
36.99592218947369
 51
174.3536612313399
  0
ARC
  5
2EB
330
1F
100
AcDbEntity
  8
0
  6
Continuous
 62
     7
370
    25
100
AcDbCircle
 10
3622.891782610688
 20
3108.81427511732
 30
0.0
 40
0.605539293846212
100
AcDbArc
 50
220.1350874696003
 51
354.353661231314
  0
ARC
  5
2EC
330
1F
100
AcDbEntity
  8
0
  6
Continuous
 62
     7
370
    25
100
AcDbCircle
 10
3621.664302016593
 20
3107.779355090045
 30
0.0
 40
1.000003627330512
100
AcDbArc
 50
40.13508746959618
 51
177.4968951246112
  0
ARC
  5
2ED
330
1F
100
AcDbEntity
  8
0
  6
Continuous
 62
     7
370
    25
100
AcDbCircle
 10
3620.060292066019
 20
3107.849474764603
 30
0.0
 40
0.6055382407947093
100
AcDbArc
 50
284.9242628569444
 51
357.4968951245792
  0
LINE
  5
2EE
330
1F
100
AcDbEntity
  8
0
  6
Continuous
 62
     7
370
    25
100
AcDbLine
 10
3620.216243594548
 20
3107.264363081406
 30
0.0
 11
3619.803259783863
 21
3107.025926767136
 31
0.0
  0
ARC
  5
2EF
330
1F
100
AcDbEntity
  8
0
  6
Continuous
 62
     7
370
    25
100
AcDbCircle
 10
3620.053259783862
 20
3106.592914065243
 30
0.0
 40
0.5000000000006317
100
AcDbArc
 50
119.9999999999582
 51
177.1393327193161
  0
LINE
  5
2F0
330
1F
100
AcDbEntity
  8
0
  6
Continuous
 62
     7
370
    25
100
AcDbLine
 10
3605.102232802048
 20
3098.538284890679
 30
0.0
 11
3604.688880595703
 21
3098.299635883077
 31
0.0
  0
ARC
  5
2F1
330
1F
100
AcDbEntity
  8
0
  6
Continuous
 62
     7
370
    25
100
AcDbCircle
 10
3604.260400194011
 20
3098.727517293056
 30
0.0
 40
0.605539392311933
100
AcDbArc
 50
242.5072707330141
 51
315.040076158332
  0
ARC
  5
2F2
330
1F
100
AcDbEntity
  8
0
  6
Continuous
 62
     7
370
    25
100
AcDbCircle
 10
3603.519223704334
 20
3097.303289266495
 30
0.0
 40
1.000003525362053
100
AcDbArc
 50
62.50727073302245
 51
199.8649123615131
  0
ARC
  5
2F3
330
1F
100
AcDbEntity
  8
0
  6
Continuous
 62
     7
370
    25
100
AcDbCircle
 10
3602.009216374465
 20
3096.757719908635
 30
0.0
 40
0.6055393923116073
100
AcDbArc
 50
245.6463386485743
 51
19.864912361478
  0
ARC
  5
2F4
330
1F
100
AcDbEntity
  8
0
  6
Continuous
 62
     7
370
    25
100
AcDbCircle
 10
3601.347142224319
 20
3095.295042268073
 30
0.0
 40
1.000003525361797
100
AcDbArc
 50
65.64633864854783
 51
203.0039801594712
  0
ARC
  5
2F5
330
1F
100
AcDbEntity
  8
0
  6
Continuous
 62
     7
370
    25
100
AcDbCircle
 10
3599.869275758792
 20
3094.667604007715
 30
0.0
 40
0.6055393923115837
100
AcDbArc
 50
248.7854064465293
 51
23.00398015949145
  0
ARC
  5
2F6
330
1F
100
AcDbEntity
  8
0
  6
Continuous
 62
     7
370
    25
100
AcDbCircle
 10
3599.288290745125
 20
3093.170866063255
 30
0.0
 40
1.000003525362647
100
AcDbArc
 50
68.78540644650431
 51
206.1430479574513
  0
ARC
  5
2F7
330
1F
100
AcDbEntity
  8
0
  6
Continuous
 62
     7
370
    25
100
AcDbCircle
 10
3597.847000032241
 20
3092.463441762394
 30
0.0
 40
0.6055393923122822
100
AcDbArc
 50
251.9244742445687
 51
26.14304795743724
  0
ARC
  5
2F8
330
1F
100
AcDbEntity
  8
0
  6
Continuous
 62
     7
370
    25
100
AcDbCircle
 10
3597.348847616796
 20
3090.937135033233
 30
0.0
 40
1.000003525362045
100
AcDbArc
 50
71.92447424451424
 51
209.2821157554025
  0
ARC
  5
2F9
330
1F
100
AcDbEntity
  8
0
  6
Continuous
 62
     7
370
    25
100
AcDbCircle
 10
3595.948457785704
 20
3090.151847581746
 30
0.0
 40
0.605539392311875
100
AcDbArc
 50
255.063542042474
 51
29.28211575545931
  0
ARC
  5
2FA
330
1F
100
AcDbEntity
  8
0
  6
Continuous
 62
     7
370
    25
100
AcDbCircle
 10
3595.534632860186
 20
3088.600552319228
 30
0.0
 40
1.000003525362128
100
AcDbArc
 50
75.06354204244455
 51
212.4211835534172
  0
ARC
  5
2FB
330
1F
100
AcDbEntity
  8
0
  6
Continuous
 62
     7
370
    25
100
AcDbCircle
 10
3594.179346301714
 20
3087.739758264349
 30
0.0
 40
0.6055393923110899
100
AcDbArc
 50
258.2026098403605
 51
32.42118355350442
  0
ARC
  5
2FC
330
1F
100
AcDbEntity
  8
0
  6
Continuous
 62
     7
370
    25
100
AcDbCircle
 10
3593.851090701812
 20
3086.168129707207
 30
0.0
 40
1.000003525361607
100
AcDbArc
 50
78.20260984041509
 51
215.5602513513926
  0
ARC
  5
2FD
330
1F
100
AcDbEntity
  8
0
  6
Continuous
 62
     7
370
    25
100
AcDbCircle
 10
3592.544974457636
 20
3085.234412181835
 30
0.0
 40
0.60553939231192
100
AcDbArc
 50
261.34167639998
 51
35.56025135139904
  0
ARC
  5
2FE
330
1F
100
AcDbEntity
  8
0
  6
Continuous
 62
     7
370
    25
100
AcDbCircle
 10
3592.303273187336
 20
3083.647166494499
 30
0.0
 40
1.000003623627121
100
AcDbArc
 50
81.3416764000525
 51
148.8929874041078
  0
ARC
  5
2FF
330
1F
100
AcDbEntity
  8
0
  6
Continuous
 62
     7
370
    25
100
AcDbCircle
 10
3592.322593069505
 20
3083.680629518811
 30
0.0
 40
1.000003620326153
100
AcDbArc
 50
151.1070128881007
 51
218.6583221926919
  0
ARC
  5
300
330
1F
100
AcDbEntity
  8
0
  6
Continuous
 62
     7
370
    25
100
AcDbCircle
 10
3591.06884867221
 20
3082.677687329302
 30
0.0
 40
0.6055392938451032
100
AcDbArc
 50
264.4397485284652
 51
38.65832219270042
  0
ARC
  5
301
330
1F
100
AcDbEntity
  8
0
  6
Continuous
 62
     7
370
    25
100
AcDbCircle
 10
3590.913283694015
 20
3081.07969871919
 30
0.0
 40
1.000003623827143
100
AcDbArc
 50
84.43974852841208
 51
221.7973900394746
  0
ARC
  5
302
330
1F
100
AcDbEntity
  8
0
  6
Continuous
 62
     7
370
    25
100
AcDbCircle
 10
3589.716341235925
 20
3080.009606754679
 30
0.0
 40
0.605539293846616
100
AcDbArc
 50
267.5788163264705
 51
41.7973900394629
  0
ARC
  5
303
330
1F
100
AcDbEntity
  8
0
  6
Continuous
 62
     7
370
    25
100
AcDbCircle
 10
3589.648514992845
 20
3078.405497138338
 30
0.0
 40
1.000003623827163
100
AcDbArc
 50
87.57881632643465
 51
224.936457837385
  0
ARC
  5
304
330
1F
100
AcDbEntity
  8
0
  6
Continuous
 62
     7
370
    25
100
AcDbCircle
 10
3588.511966347116
 20
3077.271466611243
 30
0.0
 40
0.6055392938470469
100
AcDbArc
 50
270.7178841244122
 51
44.93645783743875
  0
ARC
  5
305
330
1F
100
AcDbEntity
  8
0
  6
Continuous
 62
     7
370
    25
100
AcDbCircle
 10
3588.532082377034
 20
3075.66604971653
 30
0.0
 40
1.000003623827181
100
AcDbArc
 50
90.71788412442217
 51
228.075525635377
  0
ARC
  5
306
330
1F
100
AcDbEntity
  8
0
  6
Continuous
 62
     7
370
    25
100
AcDbCircle
 10
3587.459338180833
 20
3074.471483707467
 30
0.0
 40
0.6055392938460199
100
AcDbArc
 50
273.8569519202022
 51
48.07552563538098
  0
ARC
  5
307
330
1F
100
AcDbEntity
  8
0
  6
Continuous
 62
     7
370
    25
100
AcDbCircle
 10
3587.567336118064
 20
3072.869577185049
 30
0.0
 40
1.000003623990142
100
AcDbArc
 50
93.85695192014422
 51
231.2146909668632
  0
ARC
  5
308
330
1F
100
AcDbEntity
  8
0
  6
Continuous
 62
     7
370
    25
100
AcDbCircle
 10
3586.56161839285
 20
3071.618059621377
 30
0.0
 40
0.6055381397108036
100
AcDbArc
 50
276.995922189564
 51
51.21469096682188
  0
ARC
  5
309
330
1F
100
AcDbEntity
  8
0
  6
Continuous
 62
     7
370
    25
100
AcDbCircle
 10
3586.757171296261
 20
3070.024471400904
 30
0.0
 40
1.000003623827149
100
AcDbArc
 50
96.99592218949534
 51
234.3536612313201
  0
ARC
  5
30A
330
1F
100
AcDbEntity
  8
0
  6
Continuous
 62
     7
370
    25
100
AcDbCircle
 10
3585.821492374325
 20
3068.71975954937
 30
0.0
 40
0.6055392938460944
100
AcDbArc
 50
280.1350874695468
 51
54.35366123130338
  0
ARC
  5
30B
330
1F
100
AcDbEntity
  8
0
  6
Continuous
 62
     7
370
    25
100
AcDbCircle
 10
3586.104019111783
 20
3067.139270158592
 30
0.0
 40
1.000003627329542
100
AcDbArc
 50
100.1350874695948
 51
237.4968951245801
  0
ARC
  5
30C
330
1F
100
AcDbEntity
  8
0
  6
Continuous
 62
     7
370
    25
100
AcDbCircle
 10
3585.241288717023
 20
3065.785216630752
 30
0.0
 40
0.6055382407956606
100
AcDbArc
 50
344.9242628569054
 51
57.49689512459696
  0
LINE
  5
30D
330
1F
100
AcDbEntity
  8
0
  6
Continuous
 62
     7
370
    25
100
AcDbLine
 10
3585.825986062989
 20
3065.627718774619
 30
0.0
 11
3585.825986062989
 21
3065.150846146077
 31
0.0
  0
ARC
  5
30E
330
1F
100
AcDbEntity
  8
0
  6
Continuous
 62
     7
370
    25
100
AcDbCircle
 10
3586.325986062988
 20
3065.150846146077
 30
0.0
 40
0.5000000000002327
100
AcDbArc
 50
180.0
 51
237.1393327253227
  0
ARC
  5
30F
330
1F
100
AcDbEntity
  8
0
  6
Continuous
 62
     7
370
    25
100
AcDbCircle
 10
3676.811870833705
 20
3095.295042267305
 30
0.0
 40
1.000003724869105
100
AcDbArc
 50
336.9959222076904
 51
114.3536614321185
  0
ARC
  5
310
330
1F
100
AcDbEntity
  8
0
  6
Continuous
 62
     7
370
    25
100
AcDbCircle
 10
3586.32598605532
 20
3048.175562379877
 30
0.0
 40
0.5000000000000228
100
AcDbArc
 50
122.8606663198277
 51
180.0
  0
LINE
  5
311
330
1F
100
AcDbEntity
  8
0
  6
Continuous
 62
     7
370
    25
100
AcDbLine
 10
3585.82598605532
 20
3048.175562379877
 30
0.0
 11
3585.82598605532
 21
3047.698264364672
 31
0.0
  0
ARC
  5
312
330
1F
100
AcDbEntity
  8
0
  6
Continuous
 62
     7
370
    25
100
AcDbCircle
 10
3585.241189652194
 20
3047.541130273747
 30
0.0
 40
0.6055393923109591
100
AcDbArc
 50
302.5072727858648
 51
15.04006469762692
  0
ARC
  5
313
330
1F
100
AcDbEntity
  8
0
  6
Continuous
 62
     7
370
    25
100
AcDbCircle
 10
3586.104019107651
 20
3046.187138622633
 30
0.0
 40
1.000003525362484
100
AcDbArc
 50
122.5072727858987
 51
259.8649123615254
  0
ARC
  5
314
330
1F
100
AcDbEntity
  8
0
  6
Continuous
 62
     7
370
    25
100
AcDbCircle
 10
3585.821492366151
 20
3044.606649236137
 30
0.0
 40
0.6055393923112882
100
AcDbArc
 50
305.6463386485543
 51
79.86491236151953
  0
ARC
  5
315
330
1F
100
AcDbEntity
  8
0
  6
Continuous
 62
     7
370
    25
100
AcDbCircle
 10
3586.757171285352
 20
3043.30193738264
 30
0.0
 40
1.000003525362838
100
AcDbArc
 50
125.6463386485705
 51
263.0039801594892
  0
ARC
  5
316
330
1F
100
AcDbEntity
  8
0
  6
Continuous
 62
     7
370
    25
100
AcDbCircle
 10
3586.561615525365
 20
3041.708348349914
 30
0.0
 40
0.6055393923113125
100
AcDbArc
 50
308.7854064465115
 51
83.00398015951779
  0
ARC
  5
317
330
1F
100
AcDbEntity
  8
0
  6
Continuous
 62
     7
370
    25
100
AcDbCircle
 10
3587.567336101243
 20
3040.45683159663
 30
0.0
 40
1.000003525362608
100
AcDbArc
 50
128.7854064465608
 51
266.143047957463
  0
ARC
  5
318
330
1F
100
AcDbEntity
  8
0
  6
Continuous
 62
     7
370
    25
100
AcDbCircle
 10
3587.459338160601
 20
3038.854925074604
 30
0.0
 40
0.6055393923117668
100
AcDbArc
 50
311.9244742445476
 51
86.14304795744919
  0
ARC
  5
319
330
1F
100
AcDbEntity
  8
0
  6
Continuous
 62
     7
370
    25
100
AcDbCircle
 10
3588.532082354298
 20
3037.660359063292
 30
0.0
 40
1.000003525362474
100
AcDbArc
 50
131.924474244511
 51
269.2821198997034
  0
ARC
  5
31A
330
1F
100
AcDbEntity
  8
0
  6
Continuous
 62
     7
370
    25
100
AcDbCircle
 10
3588.511966436245
 20
3036.05494209606
 30
0.0
 40
0.6055394634225589
100
AcDbArc
 50
315.0635395507324
 51
89.28211989975141
  0
ARC
  5
31B
330
1F
100
AcDbEntity
  8
0
  6
Continuous
 62
     7
370
    25
100
AcDbCircle
 10
3589.648515008437
 20
3034.920911538949
 30
0.0
 40
1.00000342339599
100
AcDbArc
 50
135.0635395506944
 51
272.4211862774468
  0
ARC
  5
31C
330
1F
100
AcDbEntity
  8
0
  6
Continuous
 62
     7
370
    25
100
AcDbCircle
 10
3589.716341323114
 20
3033.316801956518
 30
0.0
 40
0.6055394634221197
100
AcDbArc
 50
318.2026073486105
 51
92.42118627748649
  0
ARC
  5
31D
330
1F
100
AcDbEntity
  8
0
  6
Continuous
 62
     7
370
    25
100
AcDbCircle
 10
3590.913283709419
 20
3032.246709958009
 30
0.0
 40
1.000003423394589
100
AcDbArc
 50
138.2026073486889
 51
275.5602499311584
  0
ARC
  5
31E
330
1F
100
AcDbEntity
  8
0
  6
Continuous
 62
     7
370
    25
100
AcDbCircle
 10
3591.068848634772
 20
3030.648721445201
 30
0.0
 40
0.6055393923121104
100
AcDbArc
 50
321.3416763999996
 51
95.56024993114597
  0
ARC
  5
31F
330
1F
100
AcDbEntity
  8
0
  6
Continuous
 62
     7
370
    25
100
AcDbCircle
 10
3592.322593086902
 20
3029.645779161326
 30
0.0
 40
1.000003623627075
100
AcDbArc
 50
141.3416764000108
 51
208.8929874040938
  0
ARC
  5
320
330
1F
100
AcDbEntity
  8
0
  6
Continuous
 62
     7
370
    25
100
AcDbCircle
 10
3592.303273198844
 20
3029.679242182238
 30
0.0
 40
1.000003620325593
100
AcDbArc
 50
211.1070128880862
 51
278.6583223350477
  0
ARC
  5
321
330
1F
100
AcDbEntity
  8
0
  6
Continuous
 62
     7
370
    25
100
AcDbCircle
 10
3592.54497441915
 20
3028.091996587761
 30
0.0
 40
0.6055392962873459
100
AcDbArc
 50
324.4397484428055
 51
98.65832233506575
  0
ARC
  5
322
330
1F
100
AcDbEntity
  8
0
  6
Continuous
 62
     7
370
    25
100
AcDbCircle
 10
3593.85109065911
 20
3027.158279058315
 30
0.0
 40
1.000003620324835
100
AcDbArc
 50
144.439748442874
 51
281.7973901330546
  0
ARC
  5
323
330
1F
100
AcDbEntity
  8
0
  6
Continuous
 62
     7
370
    25
100
AcDbCircle
 10
3594.179346258067
 20
3025.586650502058
 30
0.0
 40
0.605539296288525
100
AcDbArc
 50
327.5788162408411
 51
101.7973901330081
  0
ARC
  5
324
330
1F
100
AcDbEntity
  8
0
  6
Continuous
 62
     7
370
    25
100
AcDbCircle
 10
3595.534632812554
 20
3024.725856442881
 30
0.0
 40
1.000003620325242
100
AcDbArc
 50
147.5788162408547
 51
284.9364579309843
  0
ARC
  5
325
330
1F
100
AcDbEntity
  8
0
  6
Continuous
 62
     7
370
    25
100
AcDbCircle
 10
3595.94845773708
 20
3023.174561181196
 30
0.0
 40
0.6055392962901013
100
AcDbArc
 50
330.7178840387982
 51
104.9364579309891
  0
ARC
  5
326
330
1F
100
AcDbEntity
  8
0
  6
Continuous
 62
     7
370
    25
100
AcDbCircle
 10
3597.34884756443
 20
3022.389273725198
 30
0.0
 40
1.000003620325319
100
AcDbArc
 50
150.7178840388501
 51
288.0755257223601
  0
ARC
  5
327
330
1F
100
AcDbEntity
  8
0
  6
Continuous
 62
     7
370
    25
100
AcDbCircle
 10
3597.846999978628
 20
3020.862966996865
 30
0.0
 40
0.6055392961747489
100
AcDbArc
 50
333.8569518385233
 51
108.0755257223843
  0
ARC
  5
328
330
1F
100
AcDbEntity
  8
0
  6
Continuous
 62
     7
370
    25
100
AcDbCircle
 10
3599.288290688229
 20
3020.155542691246
 30
0.0
 40
1.000003620649274
100
AcDbArc
 50
153.856951838492
 51
291.2146910627066
  0
ARC
  5
329
330
1F
100
AcDbEntity
  8
0
  6
Continuous
 62
     7
370
    25
100
AcDbCircle
 10
3599.869277831222
 20
3018.658806812148
 30
0.0
 40
0.6055381421541214
100
AcDbArc
 50
336.9959221039687
 51
111.2146910626582
  0
ARC
  5
32A
330
1F
100
AcDbEntity
  8
0
  6
Continuous
 62
     7
370
    25
100
AcDbCircle
 10
3601.347142163117
 20
3018.031366482255
 30
0.0
 40
1.000003620325671
100
AcDbArc
 50
156.9959221039304
 51
294.3536611825465
  0
ARC
  5
32B
330
1F
100
AcDbEntity
  8
0
  6
Continuous
 62
     7
370
    25
100
AcDbCircle
 10
3602.009216307508
 20
3016.568688842933
 30
0.0
 40
0.6055392938460657
100
AcDbArc
 50
340.1350874695278
 51
114.3536611825695
  0
ARC
  5
32C
330
1F
100
AcDbEntity
  8
0
  6
Continuous
 62
     7
370
    25
100
AcDbCircle
 10
3603.519223639061
 20
3016.02311947943
 30
0.0
 40
1.000003627329902
100
AcDbArc
 50
160.1350874695537
 51
297.4968951245869
  0
ARC
  5
32D
330
1F
100
AcDbEntity
  8
0
  6
Continuous
 62
     7
370
    25
100
AcDbCircle
 10
3604.260503194875
 20
3014.598946277031
 30
0.0
 40
0.6055382407938627
100
AcDbArc
 50
44.92426285687645
 51
117.4968951245572
  0
LINE
  5
32E
330
1F
100
AcDbEntity
  8
0
  6
Continuous
 62
     7
370
    25
100
AcDbLine
 10
3604.68924901231
 20
3015.026560104095
 30
0.0
 11
3605.102232822997
 21
3014.788123789824
 31
0.0
  0
ARC
  5
32F
330
1F
100
AcDbEntity
  8
0
  6
Continuous
 62
     7
370
    25
100
AcDbCircle
 10
3605.352232822997
 20
3015.221136491716
 30
0.0
 40
0.5000000000001201
100
AcDbArc
 50
239.9999999999454
 51
297.1393168737682
  0
ARC
  5
330
330
1F
100
AcDbEntity
  8
0
  6
Continuous
 62
     7
370
    25
100
AcDbCircle
 10
3620.053259797141
 20
3006.73349460197
 30
0.0
 40
0.5000000000001105
100
AcDbArc
 50
182.8606844059001
 51
240.0000000000808
  0
LINE
  5
331
330
1F
100
AcDbEntity
  8
0
  6
Continuous
 62
     7
370
    25
100
AcDbLine
 10
3619.803259797141
 20
3006.300481900078
 30
0.0
 11
3620.216612003485
 21
3006.061832892475
 31
0.0
  0
ARC
  5
332
330
1F
100
AcDbEntity
  8
0
  6
Continuous
 62
     7
370
    25
100
AcDbCircle
 10
3620.060296269624
 20
3005.47681724318
 30
0.0
 40
0.605539361704293
100
AcDbArc
 50
2.507270752642564
 51
75.04009851200942
  0
ARC
  5
333
330
1F
100
AcDbEntity
  8
0
  6
Continuous
 62
     7
370
    25
100
AcDbCircle
 10
3621.664302037273
 20
3005.547053582616
 30
0.0
 40
1.000003426897388
100
AcDbArc
 50
182.507270752678
 51
319.8649124816258
  0
ARC
  5
334
330
1F
100
AcDbEntity
  8
0
  6
Continuous
 62
     7
370
    25
100
AcDbCircle
 10
3622.891782627811
 20
3004.512133556553
 30
0.0
 40
0.6055394907768647
100
AcDbArc
 50
5.646338768672777
 51
139.8649124816865
  0
ARC
  5
335
330
1F
100
AcDbEntity
  8
0
  6
Continuous
 62
     7
370
    25
100
AcDbCircle
 10
3624.489535696827
 20
3004.670099346967
 30
0.0
 40
1.000003426897384
100
AcDbArc
 50
185.6463387686668
 51
323.003980279599
  0
ARC
  5
336
330
1F
100
AcDbEntity
  8
0
  6
Continuous
 62
     7
370
    25
100
AcDbCircle
 10
3625.771846404393
 20
3003.703948577288
 30
0.0
 40
0.6055394907759532
100
AcDbArc
 50
8.785406566627695
 51
143.0039802796815
  0
ARC
  5
337
330
1F
100
AcDbEntity
  8
0
  6
Continuous
 62
     7
370
    25
100
AcDbCircle
 10
3627.358551993424
 20
3003.949169771791
 30
0.0
 40
1.000003426898395
100
AcDbArc
 50
188.7854065666487
 51
326.1430480775542
  0
ARC
  5
338
330
1F
100
AcDbEntity
  8
0
  6
Continuous
 62
     7
370
    25
100
AcDbCircle
 10
3628.69184476754
 20
3003.054687553421
 30
0.0
 40
0.6055394907756912
100
AcDbArc
 50
11.9244743645973
 51
146.1430480775874
  0
ARC
  5
339
330
1F
100
AcDbEntity
  8
0
  6
Continuous
 62
     7
370
    25
100
AcDbCircle
 10
3630.262741375986
 20
3003.386428274562
 30
0.0
 40
1.000003426898115
100
AcDbArc
 50
191.9244743646139
 51
329.2821158755541
  0
ARC
  5
33A
330
1F
100
AcDbEntity
  8
0
  6
Continuous
 62
     7
370
    25
100
AcDbCircle
 10
3631.643015175514
 20
3002.566298834272
 30
0.0
 40
0.6055394907760138
100
AcDbArc
 50
15.06354216262327
 51
149.2821158755436
  0
ARC
  5
33B
330
1F
100
AcDbEntity
  8
0
  6
Continuous
 62
     7
370
    25
100
AcDbCircle
 10
3633.193388743509
 20
3002.983563570564
 30
0.0
 40
1.000003426898025
100
AcDbArc
 50
195.0635421625805
 51
332.4211836735428
  0
ARC
  5
33C
330
1F
100
AcDbEntity
  8
0
  6
Continuous
 62
     7
370
    25
100
AcDbCircle
 10
3634.616501543256
 20
3002.240248011942
 30
0.0
 40
0.605539490775656
100
AcDbArc
 50
18.20260996055716
 51
152.4211836735501
  0
ARC
  5
33D
330
1F
100
AcDbEntity
  8
0
  6
Continuous
 62
     7
370
    25
100
AcDbCircle
 10
3636.141699597953
 20
3002.741784605261
 30
0.0
 40
1.000003426897622
100
AcDbArc
 50
198.2026099605552
 51
335.5602499351348
  0
ARC
  5
33E
330
1F
100
AcDbEntity
  8
0
  6
Continuous
 62
     7
370
    25
100
AcDbCircle
 10
3637.603380707723
 20
3002.077513526253
 30
0.0
 40
0.6055393888087469
100
AcDbArc
 50
21.34167645277987
 51
155.5602499352118
  0
ARC
  5
33F
330
1F
100
AcDbEntity
  8
0
  6
Continuous
 62
     7
370
    25
100
AcDbCircle
 10
3639.098826426352
 20
3002.661816929816
 30
0.0
 40
1.000003623628121
100
AcDbArc
 50
201.3416764527552
 51
268.8929874041249
  0
ARC
  5
340
330
1F
100
AcDbEntity
  8
0
  6
Continuous
 62
     7
370
    25
100
AcDbCircle
 10
3639.060186806584
 20
3002.661817031309
 30
0.0
 40
1.000003722292704
100
AcDbArc
 50
271.1070041530845
 51
338.6583183412642
  0
ARC
  5
341
330
1F
100
AcDbEntity
  8
0
  6
Continuous
 62
     7
370
    25
100
AcDbCircle
 10
3640.555632383858
 20
3002.077513526355
 30
0.0
 40
0.6055391953810129
100
AcDbArc
 50
24.4397486486065
 51
158.6583183412235
  0
ARC
  5
342
330
1F
100
AcDbEntity
  8
0
  6
Continuous
 62
     7
370
    25
100
AcDbCircle
 10
3642.017313602877
 20
3002.74178461142
 30
0.0
 40
1.000003722291687
100
AcDbArc
 50
204.4397486485864
 51
341.7973901596201
  0
ARC
  5
343
330
1F
100
AcDbEntity
  8
0
  6
Continuous
 62
     7
370
    25
100
AcDbCircle
 10
3643.542511658626
 20
3002.240248021299
 30
0.0
 40
0.6055391953818362
100
AcDbArc
 50
27.57881644659162
 51
161.7973901596
  0
ARC
  5
344
330
1F
100
AcDbEntity
  8
0
  6
Continuous
 62
     7
370
    25
100
AcDbCircle
 10
3644.965624456814
 20
3002.983563582904
 30
0.0
 40
1.00000372229173
100
AcDbArc
 50
207.5788164465703
 51
344.9364579575211
  0
ARC
  5
345
330
1F
100
AcDbEntity
  8
0
  6
Continuous
 62
     7
370
    25
100
AcDbCircle
 10
3646.515998025684
 20
3002.566298849862
 30
0.0
 40
0.6055391953824491
100
AcDbArc
 50
30.7178842445926
 51
164.9364579575202
  0
ARC
  5
346
330
1F
100
AcDbEntity
  8
0
  6
Continuous
 62
     7
370
    25
100
AcDbCircle
 10
3647.896271823493
 20
3003.386428293047
 30
0.0
 40
1.000003722292349
100
AcDbArc
 50
210.7178842445452
 51
348.0755257530392
  0
ARC
  5
347
330
1F
100
AcDbEntity
  8
0
  6
Continuous
 62
     7
370
    25
100
AcDbCircle
 10
3649.467168432462
 20
3003.054687575165
 30
0.0
 40
0.6055391952189417
100
AcDbArc
 50
33.856952052414
 51
168.0755257530759
  0
ARC
  5
348
330
1F
100
AcDbEntity
  8
0
  6
Continuous
 62
     7
370
    25
100
AcDbCircle
 10
3650.800461203951
 20
3003.949169796158
 30
0.0
 40
1.000003721734616
100
AcDbArc
 50
213.8569520524077
 51
351.2146910881714
  0
ARC
  5
349
330
1F
100
AcDbEntity
  8
0
  6
Continuous
 62
     7
370
    25
100
AcDbCircle
 10
3652.387166070659
 20
3003.703951482258
 30
0.0
 40
0.6055380421291951
100
AcDbArc
 50
36.99592229635886
 51
171.214691088169
  0
ARC
  5
34A
330
1F
100
AcDbEntity
  8
0
  6
Continuous
 62
     7
370
    25
100
AcDbCircle
 10
3653.66947749996
 20
3004.670099377555
 30
0.0
 40
1.000003722292682
100
AcDbArc
 50
216.9959222963194
 51
354.3536612986715
  0
ARC
  5
34B
330
1F
100
AcDbEntity
  8
0
  6
Continuous
 62
     7
370
    25
100
AcDbCircle
 10
3655.267230565676
 20
3004.512133589363
 30
0.0
 40
0.6055391918792581
100
AcDbArc
 50
40.13508900593629
 51
174.3536612986995
  0
ARC
  5
34C
330
1F
100
AcDbEntity
  8
0
  6
Continuous
 62
     7
370
    25
100
AcDbCircle
 10
3656.494711054064
 20
3005.547053583825
 30
0.0
 40
1.000003627329603
100
AcDbArc
 50
220.1350890059884
 51
357.4968951246098
  0
ARC
  5
34D
330
1F
100
AcDbEntity
  8
0
  6
Continuous
 62
     7
370
    25
100
AcDbCircle
 10
3658.098721004638
 20
3005.476933909267
 30
0.0
 40
0.6055382407948252
100
AcDbArc
 50
104.9242628569547
 51
177.4968951245821
  0
LINE
  5
34E
330
1F
100
AcDbEntity
  8
0
  6
Continuous
 62
     7
370
    25
100
AcDbLine
 10
3657.942769476107
 20
3006.062045592464
 30
0.0
 11
3658.355753286794
 21
3006.300481906735
 31
0.0
  0
ARC
  5
34F
330
1F
100
AcDbEntity
  8
0
  6
Continuous
 62
     7
370
    25
100
AcDbCircle
 10
3658.105753286794
 20
3006.733494608628
 30
0.0
 40
0.500000000000238
100
AcDbArc
 50
299.9999999999851
 51
357.1393162004827
  0
ARC
  5
350
330
1F
100
AcDbEntity
  8
0
  6
Continuous
 62
     7
370
    25
100
AcDbCircle
 10
3672.806780268609
 20
3015.221136485084
 30
0.0
 40
0.4999999999992852
100
AcDbArc
 50
242.860679494573
 51
299.999999188708
  0
LINE
  5
351
330
1F
100
AcDbEntity
  8
0
  6
Continuous
 62
     7
370
    25
100
AcDbLine
 10
3673.056780262478
 20
3014.788123779653
 30
0.0
 11
3673.470132479906
 21
3015.026772785851
 31
0.0
  0
ARC
  5
352
330
1F
100
AcDbEntity
  8
0
  6
Continuous
 62
     7
370
    25
100
AcDbCircle
 10
3673.898613052853
 20
3014.598891408017
 30
0.0
 40
0.6055394907769318
100
AcDbArc
 50
62.50727439408041
 51
135.0400897604608
  0
ARC
  5
353
330
1F
100
AcDbEntity
  8
0
  6
Continuous
 62
     7
370
    25
100
AcDbCircle
 10
3674.639789451525
 20
3016.023119481937
 30
0.0
 40
1.000003426897004
100
AcDbArc
 50
242.5072743940764
 51
19.86491248168011
  0
ARC
  5
354
330
1F
100
AcDbEntity
  8
0
  6
Continuous
 62
     7
370
    25
100
AcDbCircle
 10
3676.149796780249
 20
3016.568688842964
 30
0.0
 40
0.6055394907765635
100
AcDbArc
 50
65.64633876871134
 51
199.8649124816336
  0
ARC
  5
355
330
1F
100
AcDbEntity
  8
0
  6
Continuous
 62
     7
370
    25
100
AcDbCircle
 10
3676.81187092733
 20
3018.031366484914
 30
0.0
 40
1.000003426897895
100
AcDbArc
 50
245.6463387686693
 51
23.00398027962
  0
ARC
  5
356
330
1F
100
AcDbEntity
  8
0
  6
Continuous
 62
     7
370
    25
100
AcDbCircle
 10
3678.289737391541
 20
3018.658804748371
 30
0.0
 40
0.6055394907759486
100
AcDbArc
 50
68.78540656664117
 51
203.0039802796199
  0
ARC
  5
357
330
1F
100
AcDbEntity
  8
0
  6
Continuous
 62
     7
370
    25
100
AcDbCircle
 10
3678.87072240207
 20
3020.155542694049
 30
0.0
 40
1.00000342689816
100
AcDbArc
 50
248.7854065666325
 51
26.14304807758779
  0
ARC
  5
358
330
1F
100
AcDbEntity
  8
0
  6
Continuous
 62
     7
370
    25
100
AcDbCircle
 10
3680.31201311347
 20
3020.862966997932
 30
0.0
 40
0.6055394907756809
100
AcDbArc
 50
71.92447436459132
 51
206.1430480775725
  0
ARC
  5
359
330
1F
100
AcDbEntity
  8
0
  6
Continuous
 62
     7
370
    25
100
AcDbCircle
 10
3680.810165525715
 20
3022.389273728135
 30
0.0
 40
1.00000342689732
100
AcDbArc
 50
251.9244743646242
 51
29.28211587558246
  0
ARC
  5
35A
330
1F
100
AcDbEntity
  8
0
  6
Continuous
 62
     7
370
    25
100
AcDbCircle
 10
3682.210555355161
 20
3023.174561182559
 30
0.0
 40
0.6055394907767684
100
AcDbArc
 50
75.06354216261612
 51
209.2821158755639
  0
ARC
  5
35B
330
1F
100
AcDbEntity
  8
0
  6
Continuous
 62
     7
370
    25
100
AcDbCircle
 10
3682.624380277427
 20
3024.725856445946
 30
0.0
 40
1.000003426898611
100
AcDbArc
 50
255.0635421626024
 51
32.42118213715038
  0
ARC
  5
35C
330
1F
100
AcDbEntity
  8
0
  6
Continuous
 62
     7
370
    25
100
AcDbCircle
 10
3673.898509875783
 20
3098.727462396853
 30
0.0
 40
0.6055382407949344
100
AcDbArc
 50
224.924262856999
 51
297.4968951245946
  0
ARC
  5
35D
330
1F
100
AcDbEntity
  8
0
  6
Continuous
 62
     7
370
    25
100
AcDbCircle
 10
3684.307922428647
 20
3027.158279058346
 30
0.0
 40
1.000003627328872
100
AcDbArc
 50
258.2026084729213
 51
35.56025146750524
  0
ARC
  5
35E
330
1F
100
AcDbEntity
  8
0
  6
Continuous
 62
     7
370
    25
100
AcDbCircle
 10
3685.614038670931
 20
3028.091996586367
 30
0.0
 40
0.6055392903443437
100
AcDbArc
 50
81.34167775452867
 51
215.5602514675586
  0
ARC
  5
35F
330
1F
100
AcDbEntity
  8
0
  6
Continuous
 62
     7
370
    25
100
AcDbCircle
 10
3685.855739888915
 20
3029.679242182271
 30
0.0
 40
1.000003627330507
100
AcDbArc
 50
261.3416777545342
 51
328.8929871120878
  0
ARC
  5
360
330
1F
100
AcDbEntity
  8
0
  6
Continuous
 62
     7
370
    25
100
AcDbCircle
 10
3685.836419991876
 20
3029.645779332033
 30
0.0
 40
1.000003720955483
100
AcDbArc
 50
331.1070042676082
 51
38.65831864365032
  0
ARC
  5
361
330
1F
100
AcDbEntity
  8
0
  6
Continuous
 62
     7
370
    25
100
AcDbCircle
 10
3687.090164452987
 20
3030.648721445233
 30
0.0
 40
0.6055391953811559
100
AcDbArc
 50
84.43975152195397
 51
218.6583186436071
  0
ARC
  5
362
330
1F
100
AcDbEntity
  8
0
  6
Continuous
 62
     7
370
    25
100
AcDbCircle
 10
3687.245729347693
 20
3032.246710063473
 30
0.0
 40
1.000003722291626
100
AcDbArc
 50
264.4397515219061
 51
41.79738625346987
  0
ARC
  5
363
330
1F
100
AcDbEntity
  8
0
  6
Continuous
 62
     7
370
    25
100
AcDbCircle
 10
3688.442671876492
 20
3033.316801948892
 30
0.0
 40
0.605539195381332
100
AcDbArc
 50
87.57881932009116
 51
221.7973862534955
  0
ARC
  5
364
330
1F
100
AcDbEntity
  8
0
  6
Continuous
 62
     7
370
    25
100
AcDbCircle
 10
3688.510498035757
 20
3034.920911568778
 30
0.0
 40
1.000003722292172
100
AcDbArc
 50
267.5788193201263
 51
44.93645405114405
  0
ARC
  5
365
330
1F
100
AcDbEntity
  8
0
  6
Continuous
 62
     7
370
    25
100
AcDbCircle
 10
3689.647046756429
 20
3036.054942020767
 30
0.0
 40
0.6055391953827029
100
AcDbArc
 50
90.7178842445937
 51
224.9364540511063
  0
ARC
  5
366
330
1F
100
AcDbEntity
  8
0
  6
Continuous
 62
     7
370
    25
100
AcDbCircle
 10
3689.626930723143
 20
3037.660358915438
 30
0.0
 40
1.000003722292377
100
AcDbArc
 50
270.7178842445746
 51
48.07552575306709
  0
ARC
  5
367
330
1F
100
AcDbEntity
  8
0
  6
Continuous
 62
     7
370
    25
100
AcDbCircle
 10
3690.699674916782
 20
3038.854924926584
 30
0.0
 40
0.6055391952191651
100
AcDbArc
 50
93.85695205241372
 51
228.0755257530292
  0
ARC
  5
368
330
1F
100
AcDbEntity
  8
0
  6
Continuous
 62
     7
370
    25
100
AcDbCircle
 10
3690.591676975914
 20
3040.456831447871
 30
0.0
 40
1.000003721732983
100
AcDbArc
 50
273.856952052388
 51
51.21469108821411
  0
ARC
  5
369
330
1F
100
AcDbEntity
  8
0
  6
Continuous
 62
     7
370
    25
100
AcDbCircle
 10
3691.597394698578
 20
3041.708349013799
 30
0.0
 40
0.6055380421299789
100
AcDbArc
 50
96.9959222962872
 51
231.2146910882532
  0
ARC
  5
36A
330
1F
100
AcDbEntity
  8
0
  6
Continuous
 62
     7
370
    25
100
AcDbCircle
 10
3691.401841792089
 20
3043.301937234785
 30
0.0
 40
1.000003722292413
100
AcDbArc
 50
276.9959222963382
 51
54.35366129867607
  0
ARC
  5
36B
330
1F
100
AcDbEntity
  8
0
  6
Continuous
 62
     7
370
    25
100
AcDbCircle
 10
3692.337520710449
 20
3044.606649084574
 30
0.0
 40
0.6055391918787782
100
AcDbArc
 50
100.1350890059702
 51
234.3536612987043
  0
ARC
  5
36C
330
1F
100
AcDbEntity
  8
0
  6
Continuous
 62
     7
370
    25
100
AcDbCircle
 10
3692.054993948554
 20
3046.187138367399
 30
0.0
 40
1.000003627330673
100
AcDbArc
 50
280.1350890059832
 51
57.49689512462124
  0
ARC
  5
36D
330
1F
100
AcDbEntity
  8
0
  6
Continuous
 62
     7
370
    25
100
AcDbCircle
 10
3692.917724343313
 20
3047.54119189524
 30
0.0
 40
0.6055382407946642
100
AcDbArc
 50
164.9242628569237
 51
237.4968951245515
  0
LINE
  5
36E
330
1F
100
AcDbEntity
  8
0
  6
Continuous
 62
     7
370
    25
100
AcDbLine
 10
3692.333026997348
 20
3047.698689751374
 30
0.0
 11
3692.333026997348
 21
3048.175562379915
 31
0.0
  0
ARC
  5
36F
330
1F
100
AcDbEntity
  8
0
  6
Continuous
 62
     7
370
    25
100
AcDbCircle
 10
3691.833026997349
 20
3048.175562379915
 30
0.0
 40
0.5000000000000745
100
AcDbArc
 50
0.0
 51
57.13933355877067
  0
ARC
  5
370
330
1F
100
AcDbEntity
  8
0
  6
Continuous
 62
     7
370
    25
100
AcDbCircle
 10
3643.542511641503
 20
3111.086160652572
 30
0.0
 40
0.6055393923112474
100
AcDbArc
 50
198.2026098404301
 51
332.4211835534539
  0
ARC
  5
371
330
1F
100
AcDbEntity
  8
0
  6
Continuous
 62
     7
370
    25
100
AcDbCircle
 10
3605.352232802048
 20
3098.105272188788
 30
0.0
 40
0.4999999999996613
100
AcDbArc
 50
62.86066632539077
 51
120.0000000000364
  0
ARC
  5
372
330
1F
100
AcDbEntity
  8
0
  6
Continuous
 62
     7
370
    25
100
AcDbCircle
 10
3683.979666771104
 20
3025.586650412656
 30
0.0
 40
0.6055393888089931
100
AcDbArc
 50
78.20260847295547
 51
212.42118213712
  0
ENDSEC
  0
SECTION
  2
OBJECTS
  0
DICTIONARY
  5
C
330
0
100
AcDbDictionary
281
     1
  3
ACAD_CIP_PREVIOUS_PRODUCT_INFO
350
382
  3
ACAD_COLOR
350
37C
  3
ACAD_DETAILVIEWSTYLE
350
377
  3
ACAD_GROUP
350
D
  3
ACAD_LAYOUT
350
1A
  3
ACAD_MATERIAL
350
43
  3
ACAD_MLEADERSTYLE
350
5B
  3
ACAD_MLINESTYLE
350
17
  3
ACAD_PLOTSETTINGS
350
19
  3
ACAD_PLOTSTYLENAME
350
E
  3
ACAD_RENDER_ACTIVE_RAPIDRT_SETTINGS
350
38A
  3
ACAD_RENDER_RAPIDRT_SETTINGS
350
383
  3
ACAD_SCALELIST
350
47
  3
ACAD_SECTIONVIEWSTYLE
350
378
  3
ACAD_TABLESTYLE
350
59
  3
ACAD_VISUALSTYLE
350
2A
  3
ACDB_RECOMPOSE_DATA
350
39B
  3
AcDbVariableDictionary
350
373
  0
SUN
  5
5D
330
29
100
AcDbSun
 90
        1
290
     0
 63
     7
421
 16777215
 40
1.0
291
     1
 91
  2455826
 92
 54000000
292
     0
 70
     0
 71
   256
280
     1
  0
DICTIONARY
  5
38E
330
2
100
AcDbDictionary
280
     1
281
     1
  3
ACAD_LAYERSTATES
360
38F
  0
XRECORD
  5
382
102
{ACAD_REACTORS
330
C
102
}
330
C
100
AcDbXrecord
280
     1
300
ACD
300
2020
300

  0
DICTIONARY
  5
37C
102
{ACAD_REACTORS
330
C
102
}
330
C
100
AcDbDictionary
281
     1
  0
DICTIONARY
  5
377
102
{ACAD_REACTORS
330
C
102
}
330
C
100
AcDbDictionary
281
     1
  3
Metric50
350
37E
  0
DICTIONARY
  5
D
102
{ACAD_REACTORS
330
C
102
}
330
C
100
AcDbDictionary
281
     1
  0
DICTIONARY
  5
1A
102
{ACAD_REACTORS
330
C
102
}
330
C
100
AcDbDictionary
281
     1
  3
Layout1
350
1E
  3
Layout2
350
26
  3
Model
350
22
  0
DICTIONARY
  5
43
102
{ACAD_REACTORS
330
C
102
}
330
C
100
AcDbDictionary
281
     1
  3
ByBlock
350
45
  3
ByLayer
350
44
  3
Global
350
46
  0
DICTIONARY
  5
5B
102
{ACAD_REACTORS
330
C
102
}
330
C
100
AcDbDictionary
281
     1
  3
Standard
350
5C
  0
DICTIONARY
  5
17
102
{ACAD_REACTORS
330
C
102
}
330
C
100
AcDbDictionary
281
     1
  3
Standard
350
18
  0
DICTIONARY
  5
19
102
{ACAD_REACTORS
330
C
102
}
330
C
100
AcDbDictionary
281
     1
  0
ACDBDICTIONARYWDFLT
  5
E
102
{ACAD_REACTORS
330
C
102
}
330
C
100
AcDbDictionary
281
     1
  3
Normal
350
F
100
AcDbDictionaryWithDefault
340
F
  0
RAPIDRTRENDERSETTINGS
  5
38A
102
{ACAD_REACTORS
330
C
102
}
330
C
100
AcDbRenderSettings
 90
        2
  1
Medium
290
     1
290
     0
290
     1
290
     1
  1

  1
Applies 5 rendering levels
 90
        0
100
AcDbRapidRTRenderSettings
 90
        3
 70
     0
 90
        5
 90
        1
 70
     1
 70
     2
 40
3.0
 40
3.0
290
     1
  0
DICTIONARY
  5
383
102
{ACAD_REACTORS
330
C
102
}
330
C
100
AcDbDictionary
281
     1
  3
Coffee-Break Quality
350
387
  3
High
350
386
  3
Low
350
384
  3
Lunch Quality
350
388
  3
Medium
350
385
  3
Overnight Quality
350
389
  0
DICTIONARY
  5
47
102
{ACAD_REACTORS
330
C
102
}
330
C
100
AcDbDictionary
281
     1
  3
A0
350
48
  3
A1
350
49
  3
A2
350
4A
  3
A3
350
4B
  3
A4
350
4C
  3
A5
350
4D
  3
A6
350
4E
  3
A7
350
4F
  3
A8
350
50
  3
A9
350
51
  3
B0
350
52
  3
B1
350
53
  3
B2
350
54
  3
B3
350
55
  3
B4
350
56
  3
B5
350
57
  3
B6
350
58
  0
DICTIONARY
  5
378
102
{ACAD_REACTORS
330
C
102
}
330
C
100
AcDbDictionary
281
     1
  3
Metric50
350
37D
  0
DICTIONARY
  5
59
102
{ACAD_REACTORS
330
C
102
}
330
C
100
AcDbDictionary
281
     1
  3
Standard
350
5A
  0
DICTIONARY
  5
2A
102
{ACAD_REACTORS
330
C
102
}
330
C
100
AcDbDictionary
281
     1
  3
2dWireframe
350
2F
  3
Basic
350
32
  3
Brighten
350
36
  3
ColorChange
350
3A
  3
Conceptual
350
34
  3
Dim
350
35
  3
EdgeColorOff
350
3D
  3
Facepattern
350
39
  3
Flat
350
2B
  3
FlatWithEdges
350
2C
  3
Gouraud
350
2D
  3
GouraudWithEdges
350
2E
  3
Hidden
350
31
  3
JitterOff
350
3B
  3
Linepattern
350
38
  3
OverhangOff
350
3C
  3
Realistic
350
33
  3
Shaded
350
42
  3
Shaded with edges
350
41
  3
Shades of Gray
350
3E
  3
Sketchy
350
3F
  3
Thicken
350
37
  3
Wireframe
350
30
  3
X-Ray
350
40
  0
XRECORD
  5
39B
102
{ACAD_REACTORS
330
C
102
}
330
C
100
AcDbXrecord
280
     1
 90
        1
330
5A
  0
DICTIONARY
  5
373
102
{ACAD_REACTORS
330
C
102
}
330
C
100
AcDbDictionary
281
     1
  3
CANNOSCALE
350
374
  3
CENTEREXE
350
379
  3
CENTERLTYPEFILE
350
37A
  3
CMLEADERSTYLE
350
376
  3
CTABLESTYLE
350
375
  3
CVIEWDETAILSTYLE
350
397
  3
CVIEWSECTIONSTYLE
350
398
  0
DICTIONARY
  5
38F
102
{ACAD_REACTORS
330
38E
102
}
330
38E
100
AcDbDictionary
281
     1
  0
ACDBDETAILVIEWSTYLE
  5
37E
102
{ACAD_REACTORS
330
377
102
}
330
377
100
AcDbModelDocViewStyle
 70
     0
  3
Metric50
290
     1
300
Metric50
 90
        0
100
AcDbDetailViewStyle
 70
     0
 71
     0
 90
        3
 71
     1
340
11
 62
   256
 40
5.0
340
0
 62
   256
 40
5.0
300

 40
0.0
280
     1
 71
     2
340
16
 90
       25
 62
   256
 71
     3
340
11
 62
   256
 40
5.0
 90
        0
 40
15.0
 90
        1
300
%<\AcVar ViewDetailId>% (%<\AcVar ViewScale \f "%sn">%)
 71
     4
340
16
 90
       25
 62
   256
340
16
 90
       25
 62
   256
280
     0
  0
LAYOUT
  5
1E
102
{ACAD_REACTORS
330
1A
102
}
330
1A
100
AcDbPlotSettings
  1

  2
none_device
  4

  6

 40
0.0
 41
0.0
 42
0.0
 43
0.0
 44
0.0
 45
0.0
 46
0.0
 47
0.0
 48
0.0
 49
0.0
140
0.0
141
0.0
142
1.0
143
1.0
 70
   688
 72
     1
 73
     0
 74
     5
  7

 75
    16
147
1.0
 76
     0
 77
     2
 78
   300
148
0.0
149
0.0
100
AcDbLayout
  1
Layout1
 70
     1
 71
     1
 10
0.0
 20
0.0
 11
420.0
 21
297.0
 12
0.0
 22
0.0
 32
0.0
 14
1.000000000000000E+20
 24
1.000000000000000E+20
 34
1.000000000000000E+20
 15
-1.000000000000000E+20
 25
-1.000000000000000E+20
 35
-1.000000000000000E+20
146
0.0
 13
0.0
 23
0.0
 33
0.0
 16
1.0
 26
0.0
 36
0.0
 17
0.0
 27
1.0
 37
0.0
 76
     0
330
1B
  0
LAYOUT
  5
26
102
{ACAD_REACTORS
330
1A
102
}
330
1A
100
AcDbPlotSettings
  1

  2
none_device
  4

  6

 40
0.0
 41
0.0
 42
0.0
 43
0.0
 44
0.0
 45
0.0
 46
0.0
 47
0.0
 48
0.0
 49
0.0
140
0.0
141
0.0
142
1.0
143
1.0
 70
   688
 72
     1
 73
     0
 74
     5
  7

 75
    16
147
1.0
 76
     0
 77
     2
 78
   300
148
0.0
149
0.0
100
AcDbLayout
  1
Layout2
 70
     1
 71
     2
 10
0.0
 20
0.0
 11
0.0
 21
0.0
 12
0.0
 22
0.0
 32
0.0
 14
0.0
 24
0.0
 34
0.0
 15
0.0
 25
0.0
 35
0.0
146
0.0
 13
0.0
 23
0.0
 33
0.0
 16
1.0
 26
0.0
 36
0.0
 17
0.0
 27
1.0
 37
0.0
 76
     0
330
23
  0
LAYOUT
  5
22
102
{ACAD_REACTORS
330
1A
102
}
330
1A
100
AcDbPlotSettings
  1

  2
none_device
  4
Letter_(8.50_x_11.00_Inches)
  6

 40
6.349999999999999
 41
6.349999999999999
 42
6.350005079999999
 43
6.350005079999999
 44
215.9
 45
279.4
 46
0.0
 47
0.0
 48
0.0
 49
0.0
140
0.0
141
0.0
142
1.0
143
1.0
 70
  1712
 72
     1
 73
     0
 74
     0
  7

 75
     0
147
1.0
 76
     0
 77
     2
 78
   300
148
0.0
149
0.0
100
AcDbLayout
  1
Model
 70
     1
 71
     0
 10
0.0
 20
0.0
 11
8400.0
 21
5940.0
 12
0.0
 22
0.0
 32
0.0
 14
0.0
 24
0.0
 34
0.0
 15
8400.0
 25
5940.0
 35
0.0
146
0.0
 13
0.0
 23
0.0
 33
0.0
 16
1.0
 26
0.0
 36
0.0
 17
0.0
 27
1.0
 37
0.0
 76
     0
330
1F
331
29
  0
MATERIAL
  5
45
102
{ACAD_REACTORS
330
43
102
}
330
43
100
AcDbMaterial
  1
ByBlock
 73
     1
 78
     1
172
     1
176
     1
270
     1
274
     1
  0
MATERIAL
  5
44
102
{ACAD_REACTORS
330
43
102
}
330
43
100
AcDbMaterial
  1
ByLayer
 73
     1
 78
     1
172
     1
176
     1
270
     1
274
     1
  0
MATERIAL
  5
46
102
{ACAD_REACTORS
330
43
102
}
330
43
100
AcDbMaterial
  1
Global
 73
     1
 78
     1
172
     1
176
     1
270
     1
274
     1
  0
MLEADERSTYLE
  5
5C
102
{ACAD_REACTORS
330
5B
102
}
330
5B
100
AcDbMLeaderStyle
179
     2
170
     2
171
     1
172
     0
 90
        2
 40
0.0
 41
0.0
173
     1
 91
-1056964608
340
14
 92
       -2
290
     1
 42
2.0
291
     1
 43
8.0
  3
Standard
 44
4.0
300

342
11
174
     1
178
     6
175
     1
176
     0
 93
-1056964608
 45
4.0
292
     0
297
     0
 46
4.0
 94
-1056964608
 47
1.0
 49
1.0
140
1.0
293
     1
141
0.0
294
     1
177
     0
142
1.0
295
     0
296
     0
143
3.75
271
     0
272
     9
273
     9
298
     0
  0
MLINESTYLE
  5
18
102
{ACAD_REACTORS
330
17
102
}
330
17
100
AcDbMlineStyle
  2
STANDARD
 70
     0
  3

 62
   256
 51
90.0
 52
90.0
 71
     2
 49
0.5
 62
   256
  6
BYLAYER
 49
-0.5
 62
   256
  6
BYLAYER
  0
ACDBPLACEHOLDER
  5
F
102
{ACAD_REACTORS
330
E
102
}
330
E
  0
RAPIDRTRENDERSETTINGS
  5
387
102
{ACAD_REACTORS
330
383
102
}
330
383
100
AcDbRenderSettings
 90
        2
  1
Coffee-Break Quality
290
     1
290
     0
290
     1
290
     1
  1

  1
Renders for 10 minutes
 90
        3
100
AcDbRapidRTRenderSettings
 90
        3
 70
     1
 90
        1
 90
       10
 70
     1
 70
     2
 40
3.0
 40
3.0
290
     1
  0
RAPIDRTRENDERSETTINGS
  5
386
102
{ACAD_REACTORS
330
383
102
}
330
383
100
AcDbRenderSettings
 90
        2
  1
High
290
     1
290
     0
290
     1
290
     1
  1

  1
Applies 10 rendering levels
 90
        2
100
AcDbRapidRTRenderSettings
 90
        3
 70
     0
 90
       10
 90
        1
 70
     2
 70
     2
 40
3.0
 40
3.0
290
     1
  0
RAPIDRTRENDERSETTINGS
  5
384
102
{ACAD_REACTORS
330
383
102
}
330
383
100
AcDbRenderSettings
 90
        2
  1
Low
290
     1
290
     0
290
     1
290
     1
  1

  1
Applies 1 rendering level
 90
        0
100
AcDbRapidRTRenderSettings
 90
        3
 70
     0
 90
        1
 90
        1
 70
     0
 70
     2
 40
3.0
 40
3.0
290
     1
  0
RAPIDRTRENDERSETTINGS
  5
388
102
{ACAD_REACTORS
330
383
102
}
330
383
100
AcDbRenderSettings
 90
        2
  1
Lunch Quality
290
     1
290
     0
290
     1
290
     1
  1

  1
Renders for 60 minutes
 90
        4
100
AcDbRapidRTRenderSettings
 90
        3
 70
     1
 90
        1
 90
       60
 70
     2
 70
     2
 40
3.0
 40
3.0
290
     1
  0
RAPIDRTRENDERSETTINGS
  5
385
102
{ACAD_REACTORS
330
383
102
}
330
383
100
AcDbRenderSettings
 90
        2
  1
Medium
290
     1
290
     0
290
     1
290
     1
  1

  1
Applies 5 rendering levels
 90
        1
100
AcDbRapidRTRenderSettings
 90
        3
 70
     0
 90
        5
 90
        1
 70
     1
 70
     2
 40
3.0
 40
3.0
290
     1
  0
RAPIDRTRENDERSETTINGS
  5
389
102
{ACAD_REACTORS
330
383
102
}
330
383
100
AcDbRenderSettings
 90
        2
  1
Overnight Quality
290
     1
290
     0
290
     1
290
     1
  1

  1
Renders for 12 hours
 90
        5
100
AcDbRapidRTRenderSettings
 90
        3
 70
     1
 90
        1
 90
      720
 70
     2
 70
     2
 40
3.0
 40
3.0
290
     1
  0
SCALE
  5
48
102
{ACAD_REACTORS
330
47
102
}
330
47
100
AcDbScale
 70
     0
300
1:1
140
1.0
141
1.0
290
     1
  0
SCALE
  5
49
102
{ACAD_REACTORS
330
47
102
}
330
47
100
AcDbScale
 70
     0
300
1:2
140
1.0
141
2.0
290
     0
  0
SCALE
  5
4A
102
{ACAD_REACTORS
330
47
102
}
330
47
100
AcDbScale
 70
     0
300
1:4
140
1.0
141
4.0
290
     0
  0
SCALE
  5
4B
102
{ACAD_REACTORS
330
47
102
}
330
47
100
AcDbScale
 70
     0
300
1:5
140
1.0
141
5.0
290
     0
  0
SCALE
  5
4C
102
{ACAD_REACTORS
330
47
102
}
330
47
100
AcDbScale
 70
     0
300
1:8
140
1.0
141
8.0
290
     0
  0
SCALE
  5
4D
102
{ACAD_REACTORS
330
47
102
}
330
47
100
AcDbScale
 70
     0
300
1:10
140
1.0
141
10.0
290
     0
  0
SCALE
  5
4E
102
{ACAD_REACTORS
330
47
102
}
330
47
100
AcDbScale
 70
     0
300
1:16
140
1.0
141
16.0
290
     0
  0
SCALE
  5
4F
102
{ACAD_REACTORS
330
47
102
}
330
47
100
AcDbScale
 70
     0
300
1:20
140
1.0
141
20.0
290
     0
  0
SCALE
  5
50
102
{ACAD_REACTORS
330
47
102
}
330
47
100
AcDbScale
 70
     0
300
1:30
140
1.0
141
30.0
290
     0
  0
SCALE
  5
51
102
{ACAD_REACTORS
330
47
102
}
330
47
100
AcDbScale
 70
     0
300
1:40
140
1.0
141
40.0
290
     0
  0
SCALE
  5
52
102
{ACAD_REACTORS
330
47
102
}
330
47
100
AcDbScale
 70
     0
300
1:50
140
1.0
141
50.0
290
     0
  0
SCALE
  5
53
102
{ACAD_REACTORS
330
47
102
}
330
47
100
AcDbScale
 70
     0
300
1:100
140
1.0
141
100.0
290
     0
  0
SCALE
  5
54
102
{ACAD_REACTORS
330
47
102
}
330
47
100
AcDbScale
 70
     0
300
2:1
140
2.0
141
1.0
290
     0
  0
SCALE
  5
55
102
{ACAD_REACTORS
330
47
102
}
330
47
100
AcDbScale
 70
     0
300
4:1
140
4.0
141
1.0
290
     0
  0
SCALE
  5
56
102
{ACAD_REACTORS
330
47
102
}
330
47
100
AcDbScale
 70
     0
300
8:1
140
8.0
141
1.0
290
     0
  0
SCALE
  5
57
102
{ACAD_REACTORS
330
47
102
}
330
47
100
AcDbScale
 70
     0
300
10:1
140
10.0
141
1.0
290
     0
  0
SCALE
  5
58
102
{ACAD_REACTORS
330
47
102
}
330
47
100
AcDbScale
 70
     0
300
100:1
140
100.0
141
1.0
290
     0
  0
ACDBSECTIONVIEWSTYLE
  5
37D
102
{ACAD_REACTORS
330
378
102
}
330
378
100
AcDbModelDocViewStyle
 70
     0
  3
Metric50
290
     1
300
Metric50
 90
        0
100
AcDbSectionViewStyle
 70
     0
 71
     0
 90
      102
 71
     1
340
11
 62
   256
 40
5.0
340
0
340
0
 62
   256
 40
5.0
300
I, O, Q, S, X, Z
 40
10.0
 90
        0
 40
2.5
 90
        0
 71
     2
340
16
 90
       25
 62
   256
340
16
 90
       50
 62
   256
 40
5.0
 40
2.5
 40
5.0
 71
     3
340
11
 62
   256
 40
5.0
 90
        0
 40
15.0
 90
        1
300
%<\AcVar ViewSectionStartId>%-%<\AcVar ViewSectionEndId>% (%<\AcVar ViewScale \f "%sn">%)
 71
     4
 62
   256
 62
   257
300
ANSI31
 40
1.0
 90
        0
290
     0
290
     0
 90
        6
 40
0.0
 40
1.570796326794896
 40
0.2617993877991494
 40
1.308996938995747
 40
-0.2617993877991494
 40
1.832595714594046
  0
TABLESTYLE
  5
5A
102
{ACAD_XDICTIONARY
360
399
102
}
102
{ACAD_REACTORS
330
59
102
}
330
59
100
AcDbTableStyle
280
     0
  3
Standard
 70
     0
 71
     0
 40
1.5
 41
1.5
280
     0
281
     0
  7
Standard
140
4.5
170
     2
 62
     0
 63
     7
283
     0
 90
        4
 91
        0
  1

274
    -2
284
     1
 64
     0
275
    -2
285
     1
 65
     0
276
    -2
286
     1
 66
     0
277
    -2
287
     1
 67
     0
278
    -2
288
     1
 68
     0
279
    -2
289
     1
 69
     0
  7
Standard
140
6.0
170
     5
 62
     0
 63
     7
283
     0
 90
        4
 91
        0
  1

274
    -2
284
     1
 64
     0
275
    -2
285
     1
 65
     0
276
    -2
286
     1
 66
     0
277
    -2
287
     1
 67
     0
278
    -2
288
     1
 68
     0
279
    -2
289
     1
 69
     0
  7
Standard
140
4.5
170
     5
 62
     0
 63
     7
283
     0
 90
        4
 91
        0
  1

274
    -2
284
     1
 64
     0
275
    -2
285
     1
 65
     0
276
    -2
286
     1
 66
     0
277
    -2
287
     1
 67
     0
278
    -2
288
     1
 68
     0
279
    -2
289
     1
 69
     0
  0
VISUALSTYLE
  5
2F
102
{ACAD_REACTORS
330
2A
102
}
330
2A
100
AcDbVisualStyle
  2
2dWireframe
 70
     4
177
     3
291
     0
 70
    58
 90
        0
176
     1
 90
        2
176
     1
 90
        0
176
     1
 90
        0
176
     1
 40
0.6
176
     1
 40
30.0
176
     1
 62
     7
420
 16777215
176
     1
 90
        1
176
     1
 90
        4
176
     1
 62
     7
176
     1
 62
   257
176
     1
 90
        1
176
     1
 90
        1
176
     1
 40
1.0
176
     1
 90
        0
176
     1
 62
   257
176
     1
 40
1.0
176
     1
 90
        1
176
     1
 90
        6
176
     1
 90
        2
176
     1
 62
     7
176
     1
 90
        5
176
     1
 90
        0
176
     1
 90
        0
176
     1
290
     0
176
     1
 90
        1
176
     1
 40
0.0
176
     1
 90
        0
176
     1
290
     1
176
     1
290
     1
176
     1
290
     0
176
     1
290
     0
176
     1
290
     0
176
     1
290
     0
176
     1
290
     0
176
     1
290
     0
176
     1
290
     0
176
     1
 90
       50
176
     1
 40
0.0
176
     1
 40
1.0
176
     1
 90
        0
176
     1
 62
    18
420
        0
176
     1
 90
       50
176
     1
 90
        3
176
     1
 62
     5
420
      255
176
     1
290
     0
176
     1
 90
       50
176
     1
 90
       50
176
     1
 90
       50
176
     1
290
     0
176
     1
 90
       50
176
     1
 62
   256
176
     0
 40
1.0
176
     0
 90
        2
176
     1
  1
strokes_ogs.tif
176
     1
290
     0
176
     1
 40
1.0
176
     1
 40
1.0
176
     1
  0
VISUALSTYLE
  5
32
102
{ACAD_REACTORS
330
2A
102
}
330
2A
100
AcDbVisualStyle
  2
Basic
 70
     7
177
     3
291
     1
 70
    58
 90
        1
176
     1
 90
        0
176
     1
 90
        1
176
     1
 90
        0
176
     1
 40
0.6
176
     1
 40
30.0
176
     1
 62
     7
420
 16777215
176
     1
 90
        0
176
     1
 90
        4
176
     1
 62
     7
176
     1
 62
   257
176
     1
 90
        1
176
     1
 90
        1
176
     1
 40
1.0
176
     1
 90
        8
176
     1
 62
     7
176
     1
 40
1.0
176
     1
 90
        1
176
     1
 90
        6
176
     1
 90
        2
176
     1
 62
     7
176
     1
 90
        5
176
     1
 90
        0
176
     1
 90
        0
176
     1
290
     0
176
     1
 90
        1
176
     1
 40
0.0
176
     1
 90
        0
176
     1
290
     0
176
     1
290
     1
176
     1
290
     1
176
     1
290
     0
176
     1
290
     0
176
     1
290
     0
176
     1
290
     0
176
     1
290
     0
176
     1
290
     0
176
     1
 90
       50
176
     1
 40
0.0
176
     1
 40
1.0
176
     1
 90
        0
176
     1
 62
    18
420
        0
176
     1
 90
       50
176
     1
 90
        3
176
     1
 62
     5
420
      255
176
     1
290
     0
176
     1
 90
       50
176
     1
 90
       50
176
     1
 90
       50
176
     1
290
     0
176
     1
 90
       50
176
     1
 62
   256
176
     0
 40
1.0
176
     0
 90
        2
176
     1
  1
strokes_ogs.tif
176
     1
290
     0
176
     1
 40
1.0
176
     1
 40
1.0
176
     1
  0
VISUALSTYLE
  5
36
102
{ACAD_REACTORS
330
2A
102
}
330
2A
100
AcDbVisualStyle
  2
Brighten
 70
    12
177
     3
291
     1
 70
    58
 90
        2
176
     1
 90
        2
176
     1
 90
        0
176
     1
 90
        0
176
     1
 40
0.6
176
     1
 40
30.0
176
     1
 62
     7
420
 16777215
176
     1
 90
        1
176
     1
 90
        4
176
     1
 62
     7
176
     1
 62
   257
176
     1
 90
        1
176
     1
 90
        1
176
     1
 40
1.0
176
     1
 90
        8
176
     1
 62
     7
176
     1
 40
1.0
176
     1
 90
        1
176
     1
 90
        6
176
     1
 90
        2
176
     1
 62
     7
176
     1
 90
        5
176
     1
 90
        0
176
     1
 90
        0
176
     1
290
     0
176
     1
 90
        1
176
     1
 40
50.0
176
     1
 90
        0
176
     1
290
     0
176
     1
290
     1
176
     1
290
     1
176
     1
290
     0
176
     1
290
     0
176
     1
290
     0
176
     1
290
     0
176
     1
290
     0
176
     1
290
     0
176
     1
 90
       50
176
     1
 40
0.0
176
     1
 40
1.0
176
     1
 90
        0
176
     1
 62
    18
420
        0
176
     1
 90
       50
176
     1
 90
        3
176
     1
 62
     5
420
      255
176
     1
290
     0
176
     1
 90
       50
176
     1
 90
       50
176
     1
 90
       50
176
     1
290
     0
176
     1
 90
       50
176
     1
 62
   256
176
     0
 40
1.0
176
     0
 90
        2
176
     1
  1
strokes_ogs.tif
176
     1
290
     0
176
     1
 40
1.0
176
     1
 40
1.0
176
     1
  0
VISUALSTYLE
  5
3A
102
{ACAD_REACTORS
330
2A
102
}
330
2A
100
AcDbVisualStyle
  2
ColorChange
 70
    16
177
     3
291
     1
 70
    58
 90
        2
176
     1
 90
        2
176
     1
 90
        3
176
     1
 90
        0
176
     1
 40
0.6
176
     1
 40
30.0
176
     1
 62
     8
420
  8421504
176
     1
 90
        1
176
     1
 90
        4
176
     1
 62
     7
176
     1
 62
   257
176
     1
 90
        1
176
     1
 90
        1
176
     1
 40
1.0
176
     1
 90
        8
176
     1
 62
     8
420
  8421504
176
     1
 40
1.0
176
     1
 90
        1
176
     1
 90
        6
176
     1
 90
        2
176
     1
 62
     7
176
     1
 90
        5
176
     1
 90
        0
176
     1
 90
        0
176
     1
290
     0
176
     1
 90
        1
176
     1
 40
0.0
176
     1
 90
        0
176
     1
290
     0
176
     1
290
     1
176
     1
290
     1
176
     1
290
     0
176
     1
290
     0
176
     1
290
     0
176
     1
290
     0
176
     1
290
     0
176
     1
290
     0
176
     1
 90
       50
176
     1
 40
0.0
176
     1
 40
1.0
176
     1
 90
        0
176
     1
 62
    18
420
        0
176
     1
 90
       50
176
     1
 90
        3
176
     1
 62
     5
420
      255
176
     1
290
     0
176
     1
 90
       50
176
     1
 90
       50
176
     1
 90
       50
176
     1
290
     0
176
     1
 90
       50
176
     1
 62
   256
176
     0
 40
1.0
176
     0
 90
        2
176
     1
  1
strokes_ogs.tif
176
     1
290
     0
176
     1
 40
1.0
176
     1
 40
1.0
176
     1
  0
VISUALSTYLE
  5
34
102
{ACAD_REACTORS
330
2A
102
}
330
2A
100
AcDbVisualStyle
  2
Conceptual
 70
     9
177
     3
291
     0
 70
    58
 90
        3
176
     1
 90
        2
176
     1
 90
        0
176
     1
 90
        0
176
     1
 40
0.6
176
     1
 40
30.0
176
     1
 62
     7
420
 16777215
176
     1
 90
        2
176
     1
 90
        2
176
     1
 62
     7
176
     1
 62
   257
176
     1
 90
        1
176
     1
 90
        1
176
     1
 40
179.0
176
     1
 90
        8
176
     1
 62
     7
176
     1
 40
1.0
176
     1
 90
        1
176
     1
 90
        6
176
     1
 90
        2
176
     1
 62
     7
176
     1
 90
        3
176
     1
 90
        0
176
     1
 90
        0
176
     1
290
     0
176
     1
 90
        1
176
     1
 40
0.0
176
     1
 90
        0
176
     1
290
     0
176
     1
290
     1
176
     1
290
     1
176
     1
290
     0
176
     1
290
     0
176
     1
290
     0
176
     1
290
     0
176
     1
290
     0
176
     1
290
     0
176
     1
 90
       50
176
     1
 40
0.0
176
     1
 40
1.0
176
     1
 90
        0
176
     1
 62
    18
420
        0
176
     1
 90
       50
176
     1
 90
        3
176
     1
 62
     5
420
      255
176
     1
290
     0
176
     1
 90
       50
176
     1
 90
       50
176
     1
 90
       50
176
     1
290
     0
176
     1
 90
       50
176
     1
 62
   256
176
     0
 40
1.0
176
     0
 90
        2
176
     1
  1
strokes_ogs.tif
176
     1
290
     0
176
     1
 40
1.0
176
     1
 40
1.0
176
     1
  0
VISUALSTYLE
  5
35
102
{ACAD_REACTORS
330
2A
102
}
330
2A
100
AcDbVisualStyle
  2
Dim
 70
    11
177
     3
291
     1
 70
    58
 90
        2
176
     1
 90
        2
176
     1
 90
        0
176
     1
 90
        0
176
     1
 40
0.6
176
     1
 40
30.0
176
     1
 62
     7
420
 16777215
176
     1
 90
        1
176
     1
 90
        4
176
     1
 62
     7
176
     1
 62
   257
176
     1
 90
        1
176
     1
 90
        1
176
     1
 40
1.0
176
     1
 90
        8
176
     1
 62
     7
176
     1
 40
1.0
176
     1
 90
        1
176
     1
 90
        6
176
     1
 90
        2
176
     1
 62
     7
176
     1
 90
        5
176
     1
 90
        0
176
     1
 90
        0
176
     1
290
     0
176
     1
 90
        1
176
     1
 40
-50.0
176
     1
 90
        0
176
     1
290
     0
176
     1
290
     1
176
     1
290
     1
176
     1
290
     0
176
     1
290
     0
176
     1
290
     0
176
     1
290
     0
176
     1
290
     0
176
     1
290
     0
176
     1
 90
       50
176
     1
 40
0.0
176
     1
 40
1.0
176
     1
 90
        0
176
     1
 62
    18
420
        0
176
     1
 90
       50
176
     1
 90
        3
176
     1
 62
     5
420
      255
176
     1
290
     0
176
     1
 90
       50
176
     1
 90
       50
176
     1
 90
       50
176
     1
290
     0
176
     1
 90
       50
176
     1
 62
   256
176
     0
 40
1.0
176
     0
 90
        2
176
     1
  1
strokes_ogs.tif
176
     1
290
     0
176
     1
 40
1.0
176
     1
 40
1.0
176
     1
  0
VISUALSTYLE
  5
3D
102
{ACAD_REACTORS
330
2A
102
}
330
2A
100
AcDbVisualStyle
  2
EdgeColorOff
 70
    22
177
     3
291
     1
 70
    58
 90
        2
176
     0
 90
        2
176
     0
 90
        0
176
     0
 90
        0
176
     0
 40
0.6
176
     0
 40
30.0
176
     0
 62
     7
420
 16777215
176
     0
 90
        1
176
     0
 90
        4
176
     0
 62
     7
176
     0
 62
   257
176
     0
 90
        1
176
     0
 90
        1
176
     0
 40
1.0
176
     0
 90
        8
176
     2
 62
     7
176
     0
 40
1.0
176
     0
 90
        1
176
     0
 90
        6
176
     0
 90
        2
176
     0
 62
     7
176
     0
 90
        5
176
     0
 90
        0
176
     0
 90
        0
176
     0
290
     0
176
     0
 90
        1
176
     0
 40
0.0
176
     0
 90
        0
176
     0
290
     0
176
     0
290
     1
176
     0
290
     1
176
     0
290
     0
176
     0
290
     0
176
     0
290
     0
176
     0
290
     0
176
     0
290
     0
176
     0
290
     0
176
     0
 90
       50
176
     0
 40
0.0
176
     0
 40
1.0
176
     0
 90
        0
176
     0
 62
    18
420
        0
176
     0
 90
       50
176
     0
 90
        3
176
     0
 62
     5
420
      255
176
     0
290
     0
176
     0
 90
       50
176
     0
 90
       50
176
     0
 90
       50
176
     0
290
     0
176
     0
 90
       50
176
     0
 62
   256
176
     0
 40
1.0
176
     0
 90
        2
176
     0
  1
strokes_ogs.tif
176
     0
290
     0
176
     0
 40
1.0
176
     0
 40
1.0
176
     0
  0
VISUALSTYLE
  5
39
102
{ACAD_REACTORS
330
2A
102
}
330
2A
100
AcDbVisualStyle
  2
Facepattern
 70
    15
177
     3
291
     1
 70
    58
 90
        2
176
     1
 90
        2
176
     1
 90
        0
176
     1
 90
        0
176
     1
 40
0.6
176
     1
 40
30.0
176
     1
 62
     7
420
 16777215
176
     1
 90
        1
176
     1
 90
        4
176
     1
 62
     7
176
     1
 62
   257
176
     1
 90
        1
176
     1
 90
        1
176
     1
 40
1.0
176
     1
 90
        8
176
     1
 62
     7
176
     1
 40
1.0
176
     1
 90
        1
176
     1
 90
        6
176
     1
 90
        2
176
     1
 62
     7
176
     1
 90
        5
176
     1
 90
        0
176
     1
 90
        0
176
     1
290
     0
176
     1
 90
        1
176
     1
 40
0.0
176
     1
 90
        0
176
     1
290
     0
176
     1
290
     1
176
     1
290
     1
176
     1
290
     0
176
     1
290
     0
176
     1
290
     0
176
     1
290
     0
176
     1
290
     0
176
     1
290
     0
176
     1
 90
       50
176
     1
 40
0.0
176
     1
 40
1.0
176
     1
 90
        0
176
     1
 62
    18
420
        0
176
     1
 90
       50
176
     1
 90
        3
176
     1
 62
     5
420
      255
176
     1
290
     0
176
     1
 90
       50
176
     1
 90
       50
176
     1
 90
       50
176
     1
290
     0
176
     1
 90
       50
176
     1
 62
   256
176
     0
 40
1.0
176
     0
 90
        2
176
     1
  1
strokes_ogs.tif
176
     1
290
     0
176
     1
 40
1.0
176
     1
 40
1.0
176
     1
  0
VISUALSTYLE
  5
2B
102
{ACAD_REACTORS
330
2A
102
}
330
2A
100
AcDbVisualStyle
  2
Flat
 70
     0
177
     3
291
     1
 70
    58
 90
        2
176
     1
 90
        1
176
     1
 90
        1
176
     1
 90
        2
176
     1
 40
0.6
176
     1
 40
30.0
176
     1
 62
     7
420
 16777215
176
     1
 90
        0
176
     1
 90
        0
176
     1
 62
     7
176
     1
 62
   257
176
     1
 90
        1
176
     1
 90
        1
176
     1
 40
1.0
176
     1
 90
        8
176
     1
 62
     7
176
     1
 40
1.0
176
     1
 90
        1
176
     1
 90
        6
176
     1
 90
        2
176
     1
 62
     7
176
     1
 90
        5
176
     1
 90
        0
176
     1
 90
        0
176
     1
290
     0
176
     1
 90
       13
176
     1
 40
0.0
176
     1
 90
        0
176
     1
290
     0
176
     1
290
     1
176
     1
290
     1
176
     1
290
     0
176
     1
290
     0
176
     1
290
     0
176
     1
290
     0
176
     1
290
     0
176
     1
290
     0
176
     1
 90
       50
176
     1
 40
0.0
176
     1
 40
1.0
176
     1
 90
        0
176
     1
 62
    18
420
        0
176
     1
 90
       50
176
     1
 90
        3
176
     1
 62
     5
420
      255
176
     1
290
     0
176
     1
 90
       50
176
     1
 90
       50
176
     1
 90
       50
176
     1
290
     0
176
     1
 90
       50
176
     1
 62
   256
176
     0
 40
1.0
176
     0
 90
        2
176
     1
  1
strokes_ogs.tif
176
     1
290
     0
176
     1
 40
1.0
176
     1
 40
1.0
176
     1
  0
VISUALSTYLE
  5
2C
102
{ACAD_REACTORS
330
2A
102
}
330
2A
100
AcDbVisualStyle
  2
FlatWithEdges
 70
     1
177
     3
291
     1
 70
    58
 90
        2
176
     1
 90
        1
176
     1
 90
        1
176
     1
 90
        2
176
     1
 40
0.6
176
     1
 40
30.0
176
     1
 62
     7
420
 16777215
176
     1
 90
        1
176
     1
 90
        0
176
     1
 62
     7
176
     1
 62
   257
176
     1
 90
        1
176
     1
 90
        1
176
     1
 40
1.0
176
     1
 90
        0
176
     1
 62
   257
176
     1
 40
1.0
176
     1
 90
        1
176
     1
 90
        6
176
     1
 90
        2
176
     1
 62
     7
176
     1
 90
        5
176
     1
 90
        0
176
     1
 90
        0
176
     1
290
     0
176
     1
 90
       13
176
     1
 40
0.0
176
     1
 90
        0
176
     1
290
     0
176
     1
290
     1
176
     1
290
     1
176
     1
290
     0
176
     1
290
     0
176
     1
290
     0
176
     1
290
     0
176
     1
290
     0
176
     1
290
     0
176
     1
 90
       50
176
     1
 40
0.0
176
     1
 40
1.0
176
     1
 90
        0
176
     1
 62
    18
420
        0
176
     1
 90
       50
176
     1
 90
        3
176
     1
 62
     5
420
      255
176
     1
290
     0
176
     1
 90
       50
176
     1
 90
       50
176
     1
 90
       50
176
     1
290
     0
176
     1
 90
       50
176
     1
 62
   256
176
     0
 40
1.0
176
     0
 90
        2
176
     1
  1
strokes_ogs.tif
176
     1
290
     0
176
     1
 40
1.0
176
     1
 40
1.0
176
     1
  0
VISUALSTYLE
  5
2D
102
{ACAD_REACTORS
330
2A
102
}
330
2A
100
AcDbVisualStyle
  2
Gouraud
 70
     2
177
     3
291
     1
 70
    58
 90
        2
176
     1
 90
        2
176
     1
 90
        1
176
     1
 90
        2
176
     1
 40
0.6
176
     1
 40
30.0
176
     1
 62
     7
420
 16777215
176
     1
 90
        0
176
     1
 90
        0
176
     1
 62
     7
176
     1
 62
   257
176
     1
 90
        1
176
     1
 90
        1
176
     1
 40
1.0
176
     1
 90
        0
176
     1
 62
     7
176
     1
 40
1.0
176
     1
 90
        1
176
     1
 90
        6
176
     1
 90
        2
176
     1
 62
     7
176
     1
 90
        5
176
     1
 90
        0
176
     1
 90
        0
176
     1
290
     0
176
     1
 90
       13
176
     1
 40
0.0
176
     1
 90
        0
176
     1
290
     0
176
     1
290
     1
176
     1
290
     1
176
     1
290
     0
176
     1
290
     0
176
     1
290
     0
176
     1
290
     0
176
     1
290
     0
176
     1
290
     0
176
     1
 90
       50
176
     1
 40
0.0
176
     1
 40
1.0
176
     1
 90
        0
176
     1
 62
    18
420
        0
176
     1
 90
       50
176
     1
 90
        3
176
     1
 62
     5
420
      255
176
     1
290
     0
176
     1
 90
       50
176
     1
 90
       50
176
     1
 90
       50
176
     1
290
     0
176
     1
 90
       50
176
     1
 62
   256
176
     0
 40
1.0
176
     0
 90
        2
176
     1
  1
strokes_ogs.tif
176
     1
290
     0
176
     1
 40
1.0
176
     1
 40
1.0
176
     1
  0
VISUALSTYLE
  5
2E
102
{ACAD_REACTORS
330
2A
102
}
330
2A
100
AcDbVisualStyle
  2
GouraudWithEdges
 70
     3
177
     3
291
     1
 70
    58
 90
        2
176
     1
 90
        2
176
     1
 90
        1
176
     1
 90
        2
176
     1
 40
0.6
176
     1
 40
30.0
176
     1
 62
     7
420
 16777215
176
     1
 90
        1
176
     1
 90
        0
176
     1
 62
     7
176
     1
 62
   257
176
     1
 90
        1
176
     1
 90
        1
176
     1
 40
1.0
176
     1
 90
        0
176
     1
 62
   257
176
     1
 40
1.0
176
     1
 90
        1
176
     1
 90
        6
176
     1
 90
        2
176
     1
 62
     7
176
     1
 90
        5
176
     1
 90
        0
176
     1
 90
        0
176
     1
290
     0
176
     1
 90
       13
176
     1
 40
0.0
176
     1
 90
        0
176
     1
290
     0
176
     1
290
     1
176
     1
290
     1
176
     1
290
     0
176
     1
290
     0
176
     1
290
     0
176
     1
290
     0
176
     1
290
     0
176
     1
290
     0
176
     1
 90
       50
176
     1
 40
0.0
176
     1
 40
1.0
176
     1
 90
        0
176
     1
 62
    18
420
        0
176
     1
 90
       50
176
     1
 90
        3
176
     1
 62
     5
420
      255
176
     1
290
     0
176
     1
 90
       50
176
     1
 90
       50
176
     1
 90
       50
176
     1
290
     0
176
     1
 90
       50
176
     1
 62
   256
176
     0
 40
1.0
176
     0
 90
        2
176
     1
  1
strokes_ogs.tif
176
     1
290
     0
176
     1
 40
1.0
176
     1
 40
1.0
176
     1
  0
VISUALSTYLE
  5
31
102
{ACAD_REACTORS
330
2A
102
}
330
2A
100
AcDbVisualStyle
  2
Hidden
 70
     6
177
     3
291
     0
 70
    58
 90
        1
176
     1
 90
        2
176
     1
 90
        2
176
     1
 90
        0
176
     1
 40
0.6
176
     1
 40
30.0
176
     1
 62
     7
420
 16777215
176
     1
 90
        2
176
     1
 90
        2
176
     1
 62
     7
176
     1
 62
   257
176
     1
 90
        2
176
     1
 90
        1
176
     1
 40
40.0
176
     1
 90
        0
176
     1
 62
   257
176
     1
 40
1.0
176
     1
 90
        1
176
     1
 90
        6
176
     1
 90
        2
176
     1
 62
     7
176
     1
 90
        3
176
     1
 90
        0
176
     1
 90
        0
176
     1
290
     0
176
     1
 90
        1
176
     1
 40
0.0
176
     1
 90
        0
176
     1
290
     0
176
     1
290
     1
176
     1
290
     1
176
     1
290
     0
176
     1
290
     0
176
     1
290
     0
176
     1
290
     0
176
     1
290
     0
176
     1
290
     0
176
     1
 90
       50
176
     1
 40
0.0
176
     1
 40
1.0
176
     1
 90
        0
176
     1
 62
    18
420
        0
176
     1
 90
       50
176
     1
 90
        3
176
     1
 62
     5
420
      255
176
     1
290
     0
176
     1
 90
       50
176
     1
 90
       50
176
     1
 90
       50
176
     1
290
     0
176
     1
 90
       50
176
     1
 62
   256
176
     0
 40
1.0
176
     0
 90
        2
176
     1
  1
strokes_ogs.tif
176
     1
290
     0
176
     1
 40
1.0
176
     1
 40
1.0
176
     1
  0
VISUALSTYLE
  5
3B
102
{ACAD_REACTORS
330
2A
102
}
330
2A
100
AcDbVisualStyle
  2
JitterOff
 70
    20
177
     3
291
     1
 70
    58
 90
        2
176
     0
 90
        2
176
     0
 90
        0
176
     0
 90
        0
176
     0
 40
0.6
176
     0
 40
30.0
176
     0
 62
     7
420
 16777215
176
     0
 90
        1
176
     0
 90
        4
176
     0
 62
     7
176
     0
 62
   257
176
     0
 90
        1
176
     0
 90
        1
176
     0
 40
1.0
176
     0
 90
       10
176
     2
 62
     7
176
     0
 40
1.0
176
     0
 90
        1
176
     0
 90
        6
176
     0
 90
        2
176
     0
 62
     7
176
     0
 90
        5
176
     0
 90
        0
176
     0
 90
        0
176
     0
290
     0
176
     0
 90
        1
176
     0
 40
0.0
176
     0
 90
        0
176
     0
290
     0
176
     0
290
     1
176
     0
290
     1
176
     0
290
     0
176
     0
290
     0
176
     0
290
     0
176
     0
290
     0
176
     0
290
     0
176
     0
290
     0
176
     0
 90
       50
176
     0
 40
0.0
176
     0
 40
1.0
176
     0
 90
        0
176
     0
 62
    18
420
        0
176
     0
 90
       50
176
     0
 90
        3
176
     0
 62
     5
420
      255
176
     0
290
     0
176
     0
 90
       50
176
     0
 90
       50
176
     0
 90
       50
176
     0
290
     0
176
     0
 90
       50
176
     0
 62
   256
176
     0
 40
1.0
176
     0
 90
        2
176
     0
  1
strokes_ogs.tif
176
     0
290
     0
176
     0
 40
1.0
176
     0
 40
1.0
176
     0
  0
VISUALSTYLE
  5
38
102
{ACAD_REACTORS
330
2A
102
}
330
2A
100
AcDbVisualStyle
  2
Linepattern
 70
    14
177
     3
291
     1
 70
    58
 90
        2
176
     1
 90
        2
176
     1
 90
        0
176
     1
 90
        0
176
     1
 40
0.6
176
     1
 40
30.0
176
     1
 62
     7
420
 16777215
176
     1
 90
        1
176
     1
 90
        4
176
     1
 62
     7
176
     1
 62
   257
176
     1
 90
        7
176
     1
 90
        7
176
     1
 40
1.0
176
     1
 90
        8
176
     1
 62
     7
176
     1
 40
1.0
176
     1
 90
        1
176
     1
 90
        6
176
     1
 90
        2
176
     1
 62
     7
176
     1
 90
        5
176
     1
 90
        0
176
     1
 90
        0
176
     1
290
     0
176
     1
 90
        1
176
     1
 40
0.0
176
     1
 90
        0
176
     1
290
     0
176
     1
290
     1
176
     1
290
     1
176
     1
290
     0
176
     1
290
     0
176
     1
290
     0
176
     1
290
     0
176
     1
290
     0
176
     1
290
     0
176
     1
 90
       50
176
     1
 40
0.0
176
     1
 40
1.0
176
     1
 90
        0
176
     1
 62
    18
420
        0
176
     1
 90
       50
176
     1
 90
        3
176
     1
 62
     5
420
      255
176
     1
290
     0
176
     1
 90
       50
176
     1
 90
       50
176
     1
 90
       50
176
     1
290
     0
176
     1
 90
       50
176
     1
 62
   256
176
     0
 40
1.0
176
     0
 90
        2
176
     1
  1
strokes_ogs.tif
176
     1
290
     0
176
     1
 40
1.0
176
     1
 40
1.0
176
     1
  0
VISUALSTYLE
  5
3C
102
{ACAD_REACTORS
330
2A
102
}
330
2A
100
AcDbVisualStyle
  2
OverhangOff
 70
    21
177
     3
291
     1
 70
    58
 90
        2
176
     0
 90
        2
176
     0
 90
        0
176
     0
 90
        0
176
     0
 40
0.6
176
     0
 40
30.0
176
     0
 62
     7
420
 16777215
176
     0
 90
        1
176
     0
 90
        4
176
     0
 62
     7
176
     0
 62
   257
176
     0
 90
        1
176
     0
 90
        1
176
     0
 40
1.0
176
     0
 90
        9
176
     2
 62
     7
176
     0
 40
1.0
176
     0
 90
        1
176
     0
 90
        6
176
     0
 90
        2
176
     0
 62
     7
176
     0
 90
        5
176
     0
 90
        0
176
     0
 90
        0
176
     0
290
     0
176
     0
 90
        1
176
     0
 40
0.0
176
     0
 90
        0
176
     0
290
     0
176
     0
290
     1
176
     0
290
     1
176
     0
290
     0
176
     0
290
     0
176
     0
290
     0
176
     0
290
     0
176
     0
290
     0
176
     0
290
     0
176
     0
 90
       50
176
     0
 40
0.0
176
     0
 40
1.0
176
     0
 90
        0
176
     0
 62
    18
420
        0
176
     0
 90
       50
176
     0
 90
        3
176
     0
 62
     5
420
      255
176
     0
290
     0
176
     0
 90
       50
176
     0
 90
       50
176
     0
 90
       50
176
     0
290
     0
176
     0
 90
       50
176
     0
 62
   256
176
     0
 40
1.0
176
     0
 90
        2
176
     0
  1
strokes_ogs.tif
176
     0
290
     0
176
     0
 40
1.0
176
     0
 40
1.0
176
     0
  0
VISUALSTYLE
  5
33
102
{ACAD_REACTORS
330
2A
102
}
330
2A
100
AcDbVisualStyle
  2
Realistic
 70
     8
177
     3
291
     0
 70
    58
 90
        2
176
     1
 90
        3
176
     1
 90
        0
176
     1
 90
        2
176
     1
 40
0.6
176
     1
 40
30.0
176
     1
 62
     7
420
 16777215
176
     1
 90
        0
176
     1
 90
        0
176
     1
 62
     7
176
     1
 62
   257
176
     1
 90
        1
176
     1
 90
        1
176
     1
 40
1.0
176
     1
 90
        8
176
     1
 62
   257
176
     1
 40
1.0
176
     1
 90
        1
176
     1
 90
        6
176
     1
 90
        2
176
     1
 62
     7
176
     1
 90
        3
176
     1
 90
        0
176
     1
 90
        0
176
     1
290
     0
176
     1
 90
       13
176
     1
 40
0.0
176
     1
 90
        0
176
     1
290
     0
176
     1
290
     1
176
     1
290
     1
176
     1
290
     0
176
     1
290
     0
176
     1
290
     0
176
     1
290
     0
176
     1
290
     0
176
     1
290
     0
176
     1
 90
       50
176
     1
 40
0.0
176
     1
 40
1.0
176
     1
 90
        0
176
     1
 62
    18
420
        0
176
     1
 90
       50
176
     1
 90
        3
176
     1
 62
     5
420
      255
176
     1
290
     0
176
     1
 90
       50
176
     1
 90
       50
176
     1
 90
       50
176
     1
290
     0
176
     1
 90
       50
176
     1
 62
   256
176
     0
 40
1.0
176
     0
 90
        2
176
     1
  1
strokes_ogs.tif
176
     1
290
     0
176
     1
 40
1.0
176
     1
 40
1.0
176
     1
  0
VISUALSTYLE
  5
42
102
{ACAD_REACTORS
330
2A
102
}
330
2A
100
AcDbVisualStyle
  2
Shaded
 70
    27
177
     3
291
     0
 70
    58
 90
        2
176
     1
 90
        2
176
     1
 90
        1
176
     1
 90
        2
176
     1
 40
0.6
176
     1
 40
30.0
176
     1
 62
     7
420
 16777215
176
     1
 90
        0
176
     1
 90
        4
176
     1
 62
     7
176
     1
 62
   257
176
     1
 90
        1
176
     1
 90
        1
176
     1
 40
1.0
176
     1
 90
        8
176
     1
 62
   257
176
     1
 40
1.0
176
     1
 90
        1
176
     1
 90
        6
176
     1
 90
        2
176
     1
 62
     8
420
  7895160
176
     1
 90
        3
176
     1
 90
        0
176
     1
 90
        0
176
     1
290
     0
176
     1
 90
        5
176
     1
 40
0.0
176
     1
 90
        0
176
     1
290
     0
176
     1
290
     1
176
     1
290
     1
176
     1
290
     0
176
     1
290
     0
176
     1
290
     0
176
     1
290
     0
176
     1
290
     0
176
     1
290
     0
176
     1
 90
       50
176
     1
 40
0.0
176
     1
 40
1.0
176
     1
 90
        0
176
     1
 62
    18
420
        0
176
     1
 90
       50
176
     1
 90
        3
176
     1
 62
     5
420
      255
176
     1
290
     0
176
     1
 90
       50
176
     1
 90
       50
176
     1
 90
       50
176
     1
290
     0
176
     1
 90
       50
176
     1
 62
   256
176
     0
 40
1.0
176
     0
 90
        2
176
     1
  1
strokes_ogs.tif
176
     1
290
     0
176
     1
 40
1.0
176
     1
 40
1.0
176
     1
  0
VISUALSTYLE
  5
41
102
{ACAD_REACTORS
330
2A
102
}
330
2A
100
AcDbVisualStyle
  2
Shaded with edges
 70
    26
177
     3
291
     0
 70
    58
 90
        2
176
     1
 90
        2
176
     1
 90
        1
176
     1
 90
        2
176
     1
 40
0.6
176
     1
 40
30.0
176
     1
 62
     7
420
 16777215
176
     1
 90
        1
176
     1
 90
        2
176
     1
 62
     7
176
     1
 62
   257
176
     1
 90
        2
176
     1
 90
        1
176
     1
 40
1.0
176
     1
 90
        8
176
     1
 62
   257
176
     1
 40
1.0
176
     1
 90
        1
176
     1
 90
        6
176
     1
 90
        2
176
     1
 62
     7
176
     1
 90
        3
176
     1
 90
        0
176
     1
 90
        0
176
     1
290
     0
176
     1
 90
        5
176
     1
 40
0.0
176
     1
 90
        0
176
     1
290
     0
176
     1
290
     1
176
     1
290
     1
176
     1
290
     0
176
     1
290
     0
176
     1
290
     0
176
     1
290
     0
176
     1
290
     0
176
     1
290
     0
176
     1
 90
       50
176
     1
 40
0.0
176
     1
 40
1.0
176
     1
 90
        0
176
     1
 62
    18
420
        0
176
     1
 90
       50
176
     1
 90
        3
176
     1
 62
     5
420
      255
176
     1
290
     0
176
     1
 90
       50
176
     1
 90
       50
176
     1
 90
       50
176
     1
290
     0
176
     1
 90
       50
176
     1
 62
   256
176
     0
 40
1.0
176
     0
 90
        2
176
     1
  1
strokes_ogs.tif
176
     1
290
     0
176
     1
 40
1.0
176
     1
 40
1.0
176
     1
  0
VISUALSTYLE
  5
3E
102
{ACAD_REACTORS
330
2A
102
}
330
2A
100
AcDbVisualStyle
  2
Shades of Gray
 70
    23
177
     3
291
     0
 70
    58
 90
        2
176
     1
 90
        2
176
     1
 90
        3
176
     1
 90
        0
176
     1
 40
0.6
176
     1
 40
30.0
176
     1
 62
     7
420
 16777215
176
     1
 90
        2
176
     1
 90
        2
176
     1
 62
     7
176
     1
 62
     7
176
     1
 90
        1
176
     1
 90
        1
176
     1
 40
40.0
176
     1
 90
        8
176
     1
 62
     7
176
     1
 40
1.0
176
     1
 90
        1
176
     1
 90
        6
176
     1
 90
        2
176
     1
 62
     7
176
     1
 90
        3
176
     1
 90
        0
176
     1
 90
        0
176
     1
290
     0
176
     1
 90
        1
176
     1
 40
0.0
176
     1
 90
        0
176
     1
290
     0
176
     1
290
     1
176
     1
290
     1
176
     1
290
     0
176
     1
290
     0
176
     1
290
     0
176
     1
290
     0
176
     1
290
     0
176
     1
290
     0
176
     1
 90
       50
176
     1
 40
0.0
176
     1
 40
1.0
176
     1
 90
        0
176
     1
 62
    18
420
        0
176
     1
 90
       50
176
     1
 90
        3
176
     1
 62
     5
420
      255
176
     1
290
     0
176
     1
 90
       50
176
     1
 90
       50
176
     1
 90
       50
176
     1
290
     0
176
     1
 90
       50
176
     1
 62
   256
176
     0
 40
1.0
176
     0
 90
        2
176
     1
  1
strokes_ogs.tif
176
     1
290
     0
176
     1
 40
1.0
176
     1
 40
1.0
176
     1
  0
VISUALSTYLE
  5
3F
102
{ACAD_REACTORS
330
2A
102
}
330
2A
100
AcDbVisualStyle
  2
Sketchy
 70
    24
177
     3
291
     0
 70
    58
 90
        1
176
     1
 90
        2
176
     1
 90
        2
176
     1
 90
        0
176
     1
 40
0.6
176
     1
 40
30.0
176
     1
 62
     7
420
 16777215
176
     1
 90
        2
176
     1
 90
        2
176
     1
 62
     7
176
     1
 62
     7
176
     1
 90
        1
176
     1
 90
        1
176
     1
 40
40.0
176
     1
 90
       11
176
     1
 62
     7
176
     1
 40
1.0
176
     1
 90
        1
176
     1
 90
        6
176
     1
 90
        2
176
     1
 62
     7
176
     1
 90
        6
176
     1
 90
        0
176
     1
 90
        0
176
     1
290
     0
176
     1
 90
        1
176
     1
 40
0.0
176
     1
 90
        0
176
     1
290
     0
176
     1
290
     1
176
     1
290
     1
176
     1
290
     0
176
     1
290
     0
176
     1
290
     0
176
     1
290
     0
176
     1
290
     0
176
     1
290
     0
176
     1
 90
       50
176
     1
 40
0.0
176
     1
 40
1.0
176
     1
 90
        0
176
     1
 62
    18
420
        0
176
     1
 90
       50
176
     1
 90
        3
176
     1
 62
     5
420
      255
176
     1
290
     0
176
     1
 90
       50
176
     1
 90
       50
176
     1
 90
       50
176
     1
290
     0
176
     1
 90
       50
176
     1
 62
   256
176
     0
 40
1.0
176
     0
 90
        2
176
     1
  1
strokes_ogs.tif
176
     1
290
     0
176
     1
 40
1.0
176
     1
 40
1.0
176
     1
  0
VISUALSTYLE
  5
37
102
{ACAD_REACTORS
330
2A
102
}
330
2A
100
AcDbVisualStyle
  2
Thicken
 70
    13
177
     3
291
     1
 70
    58
 90
        2
176
     1
 90
        2
176
     1
 90
        0
176
     1
 90
        0
176
     1
 40
0.6
176
     1
 40
30.0
176
     1
 62
     7
420
 16777215
176
     1
 90
        1
176
     1
 90
        4
176
     1
 62
     7
176
     1
 62
   257
176
     1
 90
        1
176
     1
 90
        1
176
     1
 40
1.0
176
     1
 90
       12
176
     1
 62
     7
176
     1
 40
1.0
176
     1
 90
        1
176
     1
 90
        6
176
     1
 90
        2
176
     1
 62
     7
176
     1
 90
        5
176
     1
 90
        0
176
     1
 90
        0
176
     1
290
     0
176
     1
 90
        1
176
     1
 40
0.0
176
     1
 90
        0
176
     1
290
     0
176
     1
290
     1
176
     1
290
     1
176
     1
290
     0
176
     1
290
     0
176
     1
290
     0
176
     1
290
     0
176
     1
290
     0
176
     1
290
     0
176
     1
 90
       50
176
     1
 40
0.0
176
     1
 40
1.0
176
     1
 90
        0
176
     1
 62
    18
420
        0
176
     1
 90
       50
176
     1
 90
        3
176
     1
 62
     5
420
      255
176
     1
290
     0
176
     1
 90
       50
176
     1
 90
       50
176
     1
 90
       50
176
     1
290
     0
176
     1
 90
       50
176
     1
 62
   256
176
     0
 40
1.0
176
     0
 90
        2
176
     1
  1
strokes_ogs.tif
176
     1
290
     0
176
     1
 40
1.0
176
     1
 40
1.0
176
     1
  0
VISUALSTYLE
  5
30
102
{ACAD_REACTORS
330
2A
102
}
330
2A
100
AcDbVisualStyle
  2
Wireframe
 70
     5
177
     3
291
     0
 70
    58
 90
        0
176
     1
 90
        2
176
     1
 90
        0
176
     1
 90
        0
176
     1
 40
0.6
176
     1
 40
30.0
176
     1
 62
     7
420
 16777215
176
     1
 90
        1
176
     1
 90
        4
176
     1
 62
     7
176
     1
 62
   257
176
     1
 90
        1
176
     1
 90
        1
176
     1
 40
1.0
176
     1
 90
        0
176
     1
 62
   257
176
     1
 40
1.0
176
     1
 90
        1
176
     1
 90
        6
176
     1
 90
        2
176
     1
 62
     7
176
     1
 90
        3
176
     1
 90
        0
176
     1
 90
        0
176
     1
290
     0
176
     1
 90
        1
176
     1
 40
0.0
176
     1
 90
        0
176
     1
290
     0
176
     1
290
     1
176
     1
290
     1
176
     1
290
     0
176
     1
290
     0
176
     1
290
     0
176
     1
290
     0
176
     1
290
     0
176
     1
290
     0
176
     1
 90
       50
176
     1
 40
0.0
176
     1
 40
1.0
176
     1
 90
        0
176
     1
 62
    18
420
        0
176
     1
 90
       50
176
     1
 90
        3
176
     1
 62
     5
420
      255
176
     1
290
     0
176
     1
 90
       50
176
     1
 90
       50
176
     1
 90
       50
176
     1
290
     0
176
     1
 90
       50
176
     1
 62
   256
176
     0
 40
1.0
176
     0
 90
        2
176
     1
  1
strokes_ogs.tif
176
     1
290
     0
176
     1
 40
1.0
176
     1
 40
1.0
176
     1
  0
VISUALSTYLE
  5
40
102
{ACAD_REACTORS
330
2A
102
}
330
2A
100
AcDbVisualStyle
  2
X-Ray
 70
    25
177
     3
291
     0
 70
    58
 90
        2
176
     1
 90
        2
176
     1
 90
        1
176
     1
 90
        1
176
     1
 40
0.5
176
     1
 40
30.0
176
     1
 62
     7
420
 16777215
176
     1
 90
        1
176
     1
 90
        0
176
     1
 62
     7
176
     1
 62
   257
176
     1
 90
        1
176
     1
 90
        1
176
     1
 40
1.0
176
     1
 90
        8
176
     1
 62
     7
176
     1
 40
1.0
176
     1
 90
        1
176
     1
 90
        6
176
     1
 90
        2
176
     1
 62
     7
176
     1
 90
        3
176
     1
 90
        0
176
     1
 90
        0
176
     1
290
     0
176
     1
 90
       13
176
     1
 40
0.0
176
     1
 90
        0
176
     1
290
     0
176
     1
290
     1
176
     1
290
     1
176
     1
290
     0
176
     1
290
     0
176
     1
290
     0
176
     1
290
     0
176
     1
290
     0
176
     1
290
     0
176
     1
 90
       50
176
     1
 40
0.0
176
     1
 40
1.0
176
     1
 90
        0
176
     1
 62
    18
420
        0
176
     1
 90
       50
176
     1
 90
        3
176
     1
 62
     5
420
      255
176
     1
290
     0
176
     1
 90
       50
176
     1
 90
       50
176
     1
 90
       50
176
     1
290
     0
176
     1
 90
       50
176
     1
 62
   256
176
     0
 40
1.0
176
     0
 90
        2
176
     1
  1
strokes_ogs.tif
176
     1
290
     0
176
     1
 40
1.0
176
     1
 40
1.0
176
     1
  0
DICTIONARYVAR
  5
374
102
{ACAD_REACTORS
330
373
102
}
330
373
100
DictionaryVariables
280
     0
  1
1:1
  0
DICTIONARYVAR
  5
379
102
{ACAD_REACTORS
330
373
102
}
330
373
100
DictionaryVariables
280
     0
  1
3.500000
  0
DICTIONARYVAR
  5
37A
102
{ACAD_REACTORS
330
373
102
}
330
373
100
DictionaryVariables
280
     0
  1
acadiso.lin
  0
DICTIONARYVAR
  5
376
102
{ACAD_REACTORS
330
373
102
}
330
373
100
DictionaryVariables
280
     0
  1
STANDARD
  0
DICTIONARYVAR
  5
375
102
{ACAD_REACTORS
330
373
102
}
330
373
100
DictionaryVariables
280
     0
  1
STANDARD
  0
DICTIONARYVAR
  5
397
102
{ACAD_REACTORS
330
373
102
}
330
373
100
DictionaryVariables
280
     0
  1
Metric50
  0
DICTIONARYVAR
  5
398
102
{ACAD_REACTORS
330
373
102
}
330
373
100
DictionaryVariables
280
     0
  1
Metric50
  0
DICTIONARY
  5
399
330
5A
100
AcDbDictionary
280
     1
281
     1
  3
ACAD_ROUNDTRIP_2008_TABLESTYLE_CELLSTYLEMAP
360
39A
  0
CELLSTYLEMAP
  5
39A
102
{ACAD_REACTORS
330
399
102
}
330
399
100
AcDbCellStyleMap
 90
        3
300
CELLSTYLE
  1
TABLEFORMAT_BEGIN
 90
        5
170
     1
 91
        0
 92
    32768
 62
   257
 93
        1
300
CONTENTFORMAT
  1
CONTENTFORMAT_BEGIN
 90
        0
 91
        0
 92
        4
 93
        0
300

 40
0.0
140
1.0
 94
        5
 62
     0
340
11
144
6.0
309
CONTENTFORMAT_END
171
     1
301
MARGIN
  1
CELLMARGIN_BEGIN
 40
1.5
 40
1.5
 40
1.5
 40
1.5
 40
1.5
 40
1.5
309
CELLMARGIN_END
 94
        6
 95
        1
302
GRIDFORMAT
  1
GRIDFORMAT_BEGIN
 90
        0
 91
        1
 62
     0
 92
       -2
340
14
 93
        0
 40
0.045
309
GRIDFORMAT_END
 95
        2
302
GRIDFORMAT
  1
GRIDFORMAT_BEGIN
 90
        0
 91
        1
 62
     0
 92
       -2
340
14
 93
        0
 40
0.045
309
GRIDFORMAT_END
 95
        4
302
GRIDFORMAT
  1
GRIDFORMAT_BEGIN
 90
        0
 91
        1
 62
     0
 92
       -2
340
14
 93
        0
 40
0.045
309
GRIDFORMAT_END
 95
        8
302
GRIDFORMAT
  1
GRIDFORMAT_BEGIN
 90
        0
 91
        1
 62
     0
 92
       -2
340
14
 93
        0
 40
0.045
309
GRIDFORMAT_END
 95
       16
302
GRIDFORMAT
  1
GRIDFORMAT_BEGIN
 90
        0
 91
        1
 62
     0
 92
       -2
340
14
 93
        0
 40
0.045
309
GRIDFORMAT_END
 95
       32
302
GRIDFORMAT
  1
GRIDFORMAT_BEGIN
 90
        0
 91
        1
 62
     0
 92
       -2
340
14
 93
        0
 40
0.045
309
GRIDFORMAT_END
309
TABLEFORMAT_END
  1
CELLSTYLE_BEGIN
 90
        1
 91
        1
300
_TITLE
309
CELLSTYLE_END
300
CELLSTYLE
  1
TABLEFORMAT_BEGIN
 90
        5
170
     1
 91
        0
 92
        0
 62
   257
 93
        1
300
CONTENTFORMAT
  1
CONTENTFORMAT_BEGIN
 90
        0
 91
        0
 92
        4
 93
        0
300

 40
0.0
140
1.0
 94
        5
 62
     0
340
11
144
4.5
309
CONTENTFORMAT_END
171
     1
301
MARGIN
  1
CELLMARGIN_BEGIN
 40
1.5
 40
1.5
 40
1.5
 40
1.5
 40
1.5
 40
1.5
309
CELLMARGIN_END
 94
        6
 95
        1
302
GRIDFORMAT
  1
GRIDFORMAT_BEGIN
 90
        0
 91
        1
 62
     0
 92
       -2
340
14
 93
        0
 40
0.045
309
GRIDFORMAT_END
 95
        2
302
GRIDFORMAT
  1
GRIDFORMAT_BEGIN
 90
        0
 91
        1
 62
     0
 92
       -2
340
14
 93
        0
 40
0.045
309
GRIDFORMAT_END
 95
        4
302
GRIDFORMAT
  1
GRIDFORMAT_BEGIN
 90
        0
 91
        1
 62
     0
 92
       -2
340
14
 93
        0
 40
0.045
309
GRIDFORMAT_END
 95
        8
302
GRIDFORMAT
  1
GRIDFORMAT_BEGIN
 90
        0
 91
        1
 62
     0
 92
       -2
340
14
 93
        0
 40
0.045
309
GRIDFORMAT_END
 95
       16
302
GRIDFORMAT
  1
GRIDFORMAT_BEGIN
 90
        0
 91
        1
 62
     0
 92
       -2
340
14
 93
        0
 40
0.045
309
GRIDFORMAT_END
 95
       32
302
GRIDFORMAT
  1
GRIDFORMAT_BEGIN
 90
        0
 91
        1
 62
     0
 92
       -2
340
14
 93
        0
 40
0.045
309
GRIDFORMAT_END
309
TABLEFORMAT_END
  1
CELLSTYLE_BEGIN
 90
        2
 91
        1
300
_HEADER
309
CELLSTYLE_END
300
CELLSTYLE
  1
TABLEFORMAT_BEGIN
 90
        5
170
     1
 91
        0
 92
        0
 62
   257
 93
        1
300
CONTENTFORMAT
  1
CONTENTFORMAT_BEGIN
 90
        0
 91
        0
 92
        4
 93
        0
300

 40
0.0
140
1.0
 94
        2
 62
     0
340
11
144
4.5
309
CONTENTFORMAT_END
171
     1
301
MARGIN
  1
CELLMARGIN_BEGIN
 40
1.5
 40
1.5
 40
1.5
 40
1.5
 40
1.5
 40
1.5
309
CELLMARGIN_END
 94
        6
 95
        1
302
GRIDFORMAT
  1
GRIDFORMAT_BEGIN
 90
        0
 91
        1
 62
     0
 92
       -2
340
14
 93
        0
 40
0.045
309
GRIDFORMAT_END
 95
        2
302
GRIDFORMAT
  1
GRIDFORMAT_BEGIN
 90
        0
 91
        1
 62
     0
 92
       -2
340
14
 93
        0
 40
0.045
309
GRIDFORMAT_END
 95
        4
302
GRIDFORMAT
  1
GRIDFORMAT_BEGIN
 90
        0
 91
        1
 62
     0
 92
       -2
340
14
 93
        0
 40
0.045
309
GRIDFORMAT_END
 95
        8
302
GRIDFORMAT
  1
GRIDFORMAT_BEGIN
 90
        0
 91
        1
 62
     0
 92
       -2
340
14
 93
        0
 40
0.045
309
GRIDFORMAT_END
 95
       16
302
GRIDFORMAT
  1
GRIDFORMAT_BEGIN
 90
        0
 91
        1
 62
     0
 92
       -2
340
14
 93
        0
 40
0.045
309
GRIDFORMAT_END
 95
       32
302
GRIDFORMAT
  1
GRIDFORMAT_BEGIN
 90
        0
 91
        1
 62
     0
 92
       -2
340
14
 93
        0
 40
0.045
309
GRIDFORMAT_END
309
TABLEFORMAT_END
  1
CELLSTYLE_BEGIN
 90
        3
 91
        2
300
_DATA
309
CELLSTYLE_END
  0
ENDSEC
  0
SECTION
  2
ACDSDATA
 70
     2
 71
     8
  0
ACDSSCHEMA
 90
        0
  1
AcDb_Thumbnail_Schema
  2
AcDbDs::ID
280
    10
 91
        8
  2
Thumbnail_Data
280
    15
 91
        0
101
ACDSRECORD
 95
        0
 90
        1
  2
AcDbDs::TreatedAsObjectData
280
     1
291
     1
101
ACDSRECORD
 95
        0
 90
        2
  2
AcDbDs::Legacy
280
     1
291
     1
101
ACDSRECORD
  1
AcDbDs::ID
 90
        3
  2
AcDs:Indexable
280
     1
291
     1
101
ACDSRECORD
  1
AcDbDs::ID
 90
        4
  2
AcDbDs::HandleAttribute
280
     7
282
     1
  0
ACDSSCHEMA
 90
        1
  1
AcDbDs::TreatedAsObjectDataSchema
  2
AcDbDs::TreatedAsObjectData
280
     1
 91
        0
  0
ACDSSCHEMA
 90
        2
  1
AcDbDs::LegacySchema
  2
AcDbDs::Legacy
280
     1
 91
        0
  0
ACDSSCHEMA
 90
        3
  1
AcDbDs::IndexedPropertySchema
  2
AcDs:Indexable
280
     1
 91
        0
  0
ACDSSCHEMA
 90
        4
  1
AcDbDs::HandleAttributeSchema
  2
AcDbDs::HandleAttribute
280
     7
 91
        1
284
     1
  0
ACDSRECORD
 90
        0
  2
AcDbDs::ID
280
    10
320
22
  2
Thumbnail_Data
280
    15
 94
      985
310
89504E470D0A1A0A0000000D49484452000001000000009D08030000006C23567D00000300504C5445212830FFFFFF2128300000000000000000000000000000000000000000000000000000330000660000990000CC0000FF0033000033330033660033990033CC0033FF0066000066330066660066990066CC0066FF0099
310
000099330099660099990099CC0099FF00CC0000CC3300CC6600CC9900CCCC00CCFF00FF0000FF3300FF6600FF9900FFCC00FFFF3300003300333300663300993300CC3300FF3333003333333333663333993333CC3333FF3366003366333366663366993366CC3366FF3399003399333399663399993399CC3399FF33CC00
310
33CC3333CC6633CC9933CCCC33CCFF33FF0033FF3333FF6633FF9933FFCC33FFFF6600006600336600666600996600CC6600FF6633006633336633666633996633CC6633FF6666006666336666666666996666CC6666FF6699006699336699666699996699CC6699FF66CC0066CC3366CC6666CC9966CCCC66CCFF66FF0066
310
FF3366FF6666FF9966FFCC66FFFF9900009900339900669900999900CC9900FF9933009933339933669933999933CC9933FF9966009966339966669966999966CC9966FF9999009999339999669999999999CC9999FF99CC0099CC3399CC6699CC9999CCCC99CCFF99FF0099FF3399FF6699FF9999FFCC99FFFFCC0000CC00
310
33CC0066CC0099CC00CCCC00FFCC3300CC3333CC3366CC3399CC33CCCC33FFCC6600CC6633CC6666CC6699CC66CCCC66FFCC9900CC9933CC9966CC9999CC99CCCC99FFCCCC00CCCC33CCCC66CCCC99CCCCCCCCCCFFCCFF00CCFF33CCFF66CCFF99CCFFCCCCFFFFFF0000FF0033FF0066FF0099FF00CCFF00FFFF3300FF3333
310
FF3366FF3399FF33CCFF33FFFF6600FF6633FF6666FF6699FF66CCFF66FFFF9900FF9933FF9966FF9999FF99CCFF99FFFFCC00FFCC33FFCC66FFCC99FFCCCCFFCCFFFFFF00FFFF33FFFF66FFFF99FFFFCCFFFFFF0000000D0D0D1A1A1A2828283535354343435050505D5D5D6B6B6B787878868686939393A1A1A1AEAEAEBB
310
BBBBC9C9C9D6D6D6E4E4E4F1F1F1FFFFFF0000000000000000000000000000000000000000000000000000000000002E4550F1000000944944415478DAEDD8310A80300C05D0DEFFBEDD5D831434884BFE7B93C429BF2869D602000000000000000000E007FB2EADFB57B5B1FD37EBE38EBF9D4CC4F1A724B03FBD16800086
310
F73F3F010184075066803A0ED4725000C79B40D027F0F8E81F600E108000DC06B31248D988A40790BE125BC70568E26238772B0E00000000000000000000000000000000000000000000745CE0B66852B85E7A7C0000000049454E44AE426082
  0
ENDSEC
  0
EOF
