  0
SECTION
  2
HEADER
  9
$ACADVER
  1
AC1032
  9
$ACADMAINTVER
 90
      155
  9
$DWGCODEPAGE
  3
ANSI_1252
  9
$LASTSAVEDBY
  1
monika
  9
$REQUIREDVERSIONS
160
                 0
  9
$INSBASE
 10
0.0
 20
0.0
 30
0.0
  9
$EXTMIN
 10
100.0
 20
99.99999999999912
 30
0.0
  9
$EXTMAX
 10
8300.0
 20
5840.0
 30
0.0
  9
$LIMMIN
 10
0.0
 20
0.0
  9
$LIMMAX
 10
8400.0
 20
5940.0
  9
$ORTHOMODE
 70
     0
  9
$REGENMODE
 70
     1
  9
$FILLMODE
 70
     1
  9
$QTEXTMODE
 70
     0
  9
$MIRRTEXT
 70
     1
  9
$LTSCALE
 40
20.0
  9
$ATTMODE
 70
     1
  9
$TEXTSIZE
 40
98.77777777777778
  9
$TRACEWID
 40
1.0
  9
$TEXTSTYLE
  7
Standard
  9
$CLAYER
  8
0
  9
$CELTYPE
  6
ByLayer
  9
$CECOLOR
 62
   256
  9
$CELTSCALE
 40
1.0
  9
$DISPSILH
 70
     0
  9
$DIMSCALE
 40
1.0
  9
$DIMASZ
 40
74.08333333333333
  9
$DIMEXO
 40
60.0
  9
$DIMDLI
 40
3.75
  9
$DIMRND
 40
0.0
  9
$DIMDLE
 40
0.0
  9
$DIMEXE
 40
19.812
  9
$DIMTP
 40
0.0
  9
$DIMTM
 40
0.0
  9
$DIMTXT
 40
98.77777777777778
  9
$DIMCEN
 40
2.5
  9
$DIMTSZ
 40
0.0
  9
$DIMTOL
 70
     0
  9
$DIMLIM
 70
     0
  9
$DIMTIH
 70
     1
  9
$DIMTOH
 70
     1
  9
$DIMSE1
 70
     0
  9
$DIMSE2
 70
     0
  9
$DIMTAD
 70
     1
  9
$DIMZIN
 70
     0
  9
$DIMBLK
  1

  9
$DIMASO
 70
     1
  9
$DIMSHO
 70
     1
  9
$DIMPOST
  1

  9
$DIMAPOST
  1

  9
$DIMALT
 70
     0
  9
$DIMALTD
 70
     3
  9
$DIMALTF
 40
0.0393700787401575
  9
$DIMLFAC
 40
1.0
  9
$DIMTOFL
 70
     1
  9
$DIMTVP
 40
0.0
  9
$DIMTIX
 70
     0
  9
$DIMSOXD
 70
     0
  9
$DIMSAH
 70
     0
  9
$DIMBLK1
  1

  9
$DIMBLK2
  1

  9
$DIMSTYLE
  2
ISO-25
  9
$DIMCLRD
 70
     0
  9
$DIMCLRE
 70
     0
  9
$DIMCLRT
 70
     0
  9
$DIMTFAC
 40
1.0
  9
$DIMGAP
 40
30.48
  9
$DIMJUST
 70
     0
  9
$DIMSD1
 70
     0
  9
$DIMSD2
 70
     0
  9
$DIMTOLJ
 70
     0
  9
$DIMTZIN
 70
     0
  9
$DIMALTZ
 70
     0
  9
$DIMALTTZ
 70
     0
  9
$DIMUPT
 70
     0
  9
$DIMDEC
 70
     0
  9
$DIMTDEC
 70
     2
  9
$DIMALTU
 70
     2
  9
$DIMALTTD
 70
     3
  9
$DIMTXSTY
  7
Standard
  9
$DIMAUNIT
 70
     0
  9
$DIMADEC
 70
     1
  9
$DIMALTRND
 40
0.0
  9
$DIMAZIN
 70
     0
  9
$DIMDSEP
 70
    44
  9
$DIMATFIT
 70
     3
  9
$DIMFRAC
 70
     0
  9
$DIMLDRBLK
  1

  9
$DIMLUNIT
 70
     2
  9
$DIMLWD
 70
    -2
  9
$DIMLWE
 70
    -2
  9
$DIMTMOVE
 70
     0
  9
$DIMFXL
 40
1.0
  9
$DIMFXLON
 70
     0
  9
$DIMJOGANG
 40
0.7853981633974483
  9
$DIMTFILL
 70
     0
  9
$DIMTFILLCLR
 70
     0
  9
$DIMARCSYM
 70
     0
  9
$DIMLTYPE
  6

  9
$DIMLTEX1
  6

  9
$DIMLTEX2
  6

  9
$DIMTXTDIRECTION
 70
     0
  9
$LUNITS
 70
     2
  9
$LUPREC
 70
     0
  9
$SKETCHINC
 40
1.0
  9
$FILLETRAD
 40
0.0
  9
$AUNITS
 70
     0
  9
$AUPREC
 70
     1
  9
$MENU
  1
.
  9
$ELEVATION
 40
0.0
  9
$PELEVATION
 40
0.0
  9
$THICKNESS
 40
0.0
  9
$LIMCHECK
 70
     0
  9
$CHAMFERA
 40
0.0
  9
$CHAMFERB
 40
0.0
  9
$CHAMFERC
 40
0.0
  9
$CHAMFERD
 40
0.0
  9
$SKPOLY
 70
     0
  9
$TDCREATE
 40
2460602.374479167
  9
$TDUCREATE
 40
2460602.291150972
  9
$TDUPDATE
 40
2460626.609768519
  9
$TDUUPDATE
 40
2460626.568101852
  9
$TDINDWG
 40
0.0007060301
  9
$TDUSRTIMER
 40
0.0007060301
  9
$USRTIMER
 70
     1
  9
$ANGBASE
 50
0.0
  9
$ANGDIR
 70
     0
  9
$PDMODE
 70
     0
  9
$PDSIZE
 40
-1.0
  9
$PLINEWID
 40
0.0
  9
$SPLFRAME
 70
     0
  9
$SPLINETYPE
 70
     6
  9
$SPLINESEGS
 70
     8
  9
$HANDSEED
  5
429
  9
$SURFTAB1
 70
     6
  9
$SURFTAB2
 70
     6
  9
$SURFTYPE
 70
     6
  9
$SURFU
 70
     6
  9
$SURFV
 70
     6
  9
$UCSBASE
  2

  9
$UCSNAME
  2

  9
$UCSORG
 10
0.0
 20
0.0
 30
0.0
  9
$UCSXDIR
 10
1.0
 20
0.0
 30
0.0
  9
$UCSYDIR
 10
0.0
 20
1.0
 30
0.0
  9
$UCSORTHOREF
  2

  9
$UCSORTHOVIEW
 70
     0
  9
$UCSORGTOP
 10
0.0
 20
0.0
 30
0.0
  9
$UCSORGBOTTOM
 10
0.0
 20
0.0
 30
0.0
  9
$UCSORGLEFT
 10
0.0
 20
0.0
 30
0.0
  9
$UCSORGRIGHT
 10
0.0
 20
0.0
 30
0.0
  9
$UCSORGFRONT
 10
0.0
 20
0.0
 30
0.0
  9
$UCSORGBACK
 10
0.0
 20
0.0
 30
0.0
  9
$PUCSBASE
  2

  9
$PUCSNAME
  2

  9
$PUCSORG
 10
0.0
 20
0.0
 30
0.0
  9
$PUCSXDIR
 10
1.0
 20
0.0
 30
0.0
  9
$PUCSYDIR
 10
0.0
 20
1.0
 30
0.0
  9
$PUCSORTHOREF
  2

  9
$PUCSORTHOVIEW
 70
     0
  9
$PUCSORGTOP
 10
0.0
 20
0.0
 30
0.0
  9
$PUCSORGBOTTOM
 10
0.0
 20
0.0
 30
0.0
  9
$PUCSORGLEFT
 10
0.0
 20
0.0
 30
0.0
  9
$PUCSORGRIGHT
 10
0.0
 20
0.0
 30
0.0
  9
$PUCSORGFRONT
 10
0.0
 20
0.0
 30
0.0
  9
$PUCSORGBACK
 10
0.0
 20
0.0
 30
0.0
  9
$USERI1
 70
     0
  9
$USERI2
 70
     0
  9
$USERI3
 70
     0
  9
$USERI4
 70
     0
  9
$USERI5
 70
     0
  9
$USERR1
 40
0.0
  9
$USERR2
 40
0.0
  9
$USERR3
 40
0.0
  9
$USERR4
 40
0.0
  9
$USERR5
 40
0.0
  9
$WORLDVIEW
 70
     1
  9
$SHADEDGE
 70
     3
  9
$SHADEDIF
 70
    70
  9
$TILEMODE
 70
     1
  9
$MAXACTVP
 70
    64
  9
$PINSBASE
 10
0.0
 20
0.0
 30
0.0
  9
$PLIMCHECK
 70
     0
  9
$PEXTMIN
 10
1.000000000000000E+20
 20
1.000000000000000E+20
 30
1.000000000000000E+20
  9
$PEXTMAX
 10
-1.000000000000000E+20
 20
-1.000000000000000E+20
 30
-1.000000000000000E+20
  9
$PLIMMIN
 10
0.0
 20
0.0
  9
$PLIMMAX
 10
420.0
 20
297.0
  9
$UNITMODE
 70
     0
  9
$VISRETAIN
 70
     1
  9
$PLINEGEN
 70
     0
  9
$PSLTSCALE
 70
     1
  9
$TREEDEPTH
 70
  3020
  9
$CMLSTYLE
  2
Standard
  9
$CMLJUST
 70
     0
  9
$CMLSCALE
 40
20.0
  9
$PROXYGRAPHICS
 70
     1
  9
$MEASUREMENT
 70
     1
  9
$CELWEIGHT
370
    -1
  9
$ENDCAPS
280
     0
  9
$JOINSTYLE
280
     0
  9
$LWDISPLAY
290
     1
  9
$INSUNITS
 70
     4
  9
$HYPERLINKBASE
  1

  9
$STYLESHEET
  1

  9
$XEDIT
290
     1
  9
$CEPSNTYPE
380
     0
  9
$PSTYLEMODE
290
     1
  9
$FINGERPRINTGUID
  2
{6949070a-536c-45cd-8f6c-236ae0f48f7f}
  9
$VERSIONGUID
  2
{6928BA73-8A13-E64A-867B-675F01CBE9E7}
  9
$EXTNAMES
290
     1
  9
$PSVPSCALE
 40
0.0
  9
$OLESTARTUP
290
     0
  9
$SORTENTS
280
   127
  9
$INDEXCTL
280
     0
  9
$HIDETEXT
280
     1
  9
$XCLIPFRAME
280
     2
  9
$HALOGAP
280
     0
  9
$OBSCOLOR
 70
   257
  9
$OBSLTYPE
280
     0
  9
$INTERSECTIONDISPLAY
280
     0
  9
$INTERSECTIONCOLOR
 70
   257
  9
$DIMASSOC
280
     2
  9
$PROJECTNAME
  1

  9
$CAMERADISPLAY
290
     0
  9
$LENSLENGTH
 40
50.0
  9
$CAMERAHEIGHT
 40
0.0
  9
$STEPSPERSEC
 40
2.0
  9
$STEPSIZE
 40
6.0
  9
$3DDWFPREC
 40
2.0
  9
$PSOLWIDTH
 40
5.0
  9
$PSOLHEIGHT
 40
80.0
  9
$LOFTANG1
 40
1.570796326794896
  9
$LOFTANG2
 40
1.570796326794896
  9
$LOFTMAG1
 40
0.0
  9
$LOFTMAG2
 40
0.0
  9
$LOFTPARAM
 70
     7
  9
$LOFTNORMALS
280
     1
  9
$LATITUDE
 40
37.795
  9
$LONGITUDE
 40
-122.394
  9
$NORTHDIRECTION
 40
0.0
  9
$TIMEZONE
 70
 -8000
  9
$LIGHTGLYPHDISPLAY
280
     1
  9
$TILEMODELIGHTSYNCH
280
     1
  9
$CMATERIAL
347
44
  9
$SOLIDHIST
280
     0
  9
$SHOWHIST
280
     1
  9
$DWFFRAME
280
     2
  9
$DGNFRAME
280
     2
  9
$REALWORLDSCALE
290
     1
  9
$INTERFERECOLOR
 62
   256
  9
$INTERFEREOBJVS
345
33
  9
$INTERFEREVPVS
346
30
  9
$CSHADOW
280
     0
  9
$SHADOWPLANELOCATION
 40
0.0
  0
ENDSEC
  0
SECTION
  2
CLASSES
  0
CLASS
  1
ACDBDICTIONARYWDFLT
  2
AcDbDictionaryWithDefault
  3
ObjectDBX Classes
 90
        0
 91
        1
280
     0
281
     0
  0
CLASS
  1
VISUALSTYLE
  2
AcDbVisualStyle
  3
ObjectDBX Classes
 90
     4095
 91
       24
280
     0
281
     0
  0
CLASS
  1
MATERIAL
  2
AcDbMaterial
  3
ObjectDBX Classes
 90
     1153
 91
        3
280
     0
281
     0
  0
CLASS
  1
SCALE
  2
AcDbScale
  3
ObjectDBX Classes
 90
     1153
 91
       17
280
     0
281
     0
  0
CLASS
  1
TABLESTYLE
  2
AcDbTableStyle
  3
ObjectDBX Classes
 90
     4095
 91
        1
280
     0
281
     0
  0
CLASS
  1
MLEADERSTYLE
  2
AcDbMLeaderStyle
  3
ACDB_MLEADERSTYLE_CLASS
 90
     4095
 91
        1
280
     0
281
     0
  0
CLASS
  1
SUN
  2
AcDbSun
  3
SCENEOE
 90
     1153
 91
        1
280
     0
281
     0
  0
CLASS
  1
DICTIONARYVAR
  2
AcDbDictionaryVar
  3
ObjectDBX Classes
 90
        0
 91
        9
280
     0
281
     0
  0
CLASS
  1
ACDBSECTIONVIEWSTYLE
  2
AcDbSectionViewStyle
  3
ObjectDBX Classes
 90
     1025
 91
        1
280
     0
281
     0
  0
CLASS
  1
ACDBDETAILVIEWSTYLE
  2
AcDbDetailViewStyle
  3
ObjectDBX Classes
 90
     1025
 91
        1
280
     0
281
     0
  0
CLASS
  1
RAPIDRTRENDERSETTINGS
  2
AcDbRapidRTRenderSettings
  3
ObjectDBX Classes
 90
     1024
 91
        7
280
     0
281
     0
  0
CLASS
  1
CELLSTYLEMAP
  2
AcDbCellStyleMap
  3
ObjectDBX Classes
 90
     1152
 91
        1
280
     0
281
     0
  0
ENDSEC
  0
SECTION
  2
TABLES
  0
TABLE
  2
VPORT
  5
8
330
0
100
AcDbSymbolTable
 70
     1
  0
VPORT
  5
29
330
8
100
AcDbSymbolTableRecord
100
AcDbViewportTableRecord
  2
*Active
 70
     0
 10
0.0
 20
0.0
 11
1.0
 21
1.0
 12
85.61248154324312
 22
904.1646342764034
 13
0.0
 23
0.0
 14
10.0
 24
10.0
 15
10.0
 25
10.0
 16
0.0
 26
0.0
 36
1.0
 17
0.0
 27
0.0
 37
0.0
 40
23890.38867877856
 41
1.329760403530895
 42
50.0
 43
0.0
 44
0.0
 50
0.0
 51
0.0
 71
     0
 72
  2000
 73
     1
 74
     3
 75
     0
 76
     0
 77
     0
 78
     0
281
     0
 65
     1
110
0.0
120
0.0
130
0.0
111
1.0
121
0.0
131
0.0
112
0.0
122
1.0
132
0.0
 79
     0
146
0.0
348
2F
 60
     3
 61
     5
292
     1
282
     1
141
0.0
142
0.0
 63
   250
361
5D
1001
ACAD_NAV_VCDISPLAY
1070
     3
  0
ENDTAB
  0
TABLE
  2
LTYPE
  5
5
330
0
100
AcDbSymbolTable
 70
     6
  0
LTYPE
  5
14
330
5
100
AcDbSymbolTableRecord
100
AcDbLinetypeTableRecord
  2
ByBlock
 70
     0
  3

 72
    65
 73
     0
 40
0.0
  0
LTYPE
  5
15
330
5
100
AcDbSymbolTableRecord
100
AcDbLinetypeTableRecord
  2
ByLayer
 70
     0
  3

 72
    65
 73
     0
 40
0.0
  0
LTYPE
  5
16
330
5
100
AcDbSymbolTableRecord
100
AcDbLinetypeTableRecord
  2
Continuous
 70
     0
  3
Solid line
 72
    65
 73
     0
 40
0.0
  0
LTYPE
  5
5E
330
5
100
AcDbSymbolTableRecord
100
AcDbLinetypeTableRecord
  2
HIDDEN
 70
     0
  3
Hidden __ __ __ __ __ __ __ __ __ __ __ __ __ __
 72
    65
 73
     2
 40
1.905
 49
1.27
 74
     0
 49
-0.635
 74
     0
  0
LTYPE
  5
5F
330
5
100
AcDbSymbolTableRecord
100
AcDbLinetypeTableRecord
  2
PHANTOM
 70
     0
  3
Phantom ______  __  __  ______  __  __  ______
 72
    65
 73
     6
 40
12.7
 49
6.349999999999999
 74
     0
 49
-1.27
 74
     0
 49
1.27
 74
     0
 49
-1.27
 74
     0
 49
1.27
 74
     0
 49
-1.27
 74
     0
  0
LTYPE
  5
60
330
5
100
AcDbSymbolTableRecord
100
AcDbLinetypeTableRecord
  2
CENTER
 70
     0
  3
Center ____ _ ____ _ ____ _ ____ _ ____ _ ____
 72
    65
 73
     4
 40
10.16
 49
6.349999999999999
 74
     0
 49
-1.27
 74
     0
 49
1.27
 74
     0
 49
-1.27
 74
     0
  0
LTYPE
  5
61
330
5
100
AcDbSymbolTableRecord
100
AcDbLinetypeTableRecord
  2
CENTERX2
 70
     0
  3
Center (2x) ________  __  ________  __  _____
 72
    65
 73
     4
 40
20.32
 49
12.7
 74
     0
 49
-2.54
 74
     0
 49
2.54
 74
     0
 49
-2.54
 74
     0
  0
LTYPE
  5
62
330
5
100
AcDbSymbolTableRecord
100
AcDbLinetypeTableRecord
  2
DOT2
 70
     0
  3
Dot (.5x) ........................................
 72
    65
 73
     2
 40
0.635
 49
0.0
 74
     0
 49
-0.635
 74
     0
  0
ENDTAB
  0
TABLE
  2
LAYER
  5
2
102
{ACAD_XDICTIONARY
360
41B
102
}
330
0
100
AcDbSymbolTable
 70
     2
  0
LAYER
  5
10
330
2
100
AcDbSymbolTableRecord
100
AcDbLayerTableRecord
  2
0
 70
     0
 62
     7
  6
Continuous
370
    -3
390
F
347
46
348
0
  0
LAYER
  5
63
330
2
100
AcDbSymbolTableRecord
100
AcDbLayerTableRecord
  2
FORMAT
 70
     0
 62
     7
  6
Continuous
370
    -3
390
F
347
46
348
0
  0
ENDTAB
  0
TABLE
  2
STYLE
  5
3
330
0
100
AcDbSymbolTable
 70
     3
  0
STYLE
  5
11
330
3
100
AcDbSymbolTableRecord
100
AcDbTextStyleTableRecord
  2
Standard
 70
     0
 40
0.0
 41
1.0
 50
0.0
 71
     0
 42
98.77777777777778
  3
txt
  4

  0
STYLE
  5
86
330
3
100
AcDbSymbolTableRecord
100
AcDbTextStyleTableRecord
  2
SLDTEXTSTYLE0
 70
     0
 40
0.0
 41
0.75
 50
0.0
 71
     0
 42
98.77777777777778
  3
TXT
  4

  0
STYLE
  5
A5
330
3
100
AcDbSymbolTableRecord
100
AcDbTextStyleTableRecord
  2
SLDTEXTSTYLE1
 70
     0
 40
0.0
 41
0.6875
 50
0.0
 71
     0
 42
98.77777777777778
  3
TXT
  4

  0
ENDTAB
  0
TABLE
  2
VIEW
  5
6
330
0
100
AcDbSymbolTable
 70
     1
  0
ENDTAB
  0
TABLE
  2
UCS
  5
7
330
0
100
AcDbSymbolTable
 70
     0
  0
ENDTAB
  0
TABLE
  2
APPID
  5
9
330
0
100
AcDbSymbolTable
 70
     2
  0
APPID
  5
12
330
9
100
AcDbSymbolTableRecord
100
AcDbRegAppTableRecord
  2
ACAD
 70
     0
  0
APPID
  5
421
330
9
100
AcDbSymbolTableRecord
100
AcDbRegAppTableRecord
  2
ACAD_NAV_VCDISPLAY
 70
     0
  0
ENDTAB
  0
TABLE
  2
DIMSTYLE
  5
A
330
0
100
AcDbSymbolTable
 70
     1
100
AcDbDimStyleTable
 71
     0
  0
DIMSTYLE
105
27
330
A
100
AcDbSymbolTableRecord
100
AcDbDimStyleTableRecord
  2
ISO-25
 70
     0
 41
2.5
 42
0.625
 43
3.75
 44
1.25
 73
     0
 74
     0
 77
     1
 78
     8
140
2.5
141
2.5
143
0.03937007874016
147
0.625
171
     3
172
     1
271
     2
272
     2
274
     3
278
    44
283
     0
284
     8
340
11
  0
ENDTAB
  0
TABLE
  2
BLOCK_RECORD
  5
1
330
0
100
AcDbSymbolTable
 70
     1
  0
BLOCK_RECORD
  5
1F
330
1
100
AcDbSymbolTableRecord
100
AcDbBlockTableRecord
  2
*Model_Space
340
22
 70
     0
280
     1
281
     0
  0
BLOCK_RECORD
  5
1B
330
1
100
AcDbSymbolTableRecord
100
AcDbBlockTableRecord
  2
*Paper_Space
340
1E
 70
     0
280
     1
281
     0
  0
BLOCK_RECORD
  5
23
330
1
100
AcDbSymbolTableRecord
100
AcDbBlockTableRecord
  2
*Paper_Space0
340
26
 70
     0
280
     1
281
     0
  0
ENDTAB
  0
ENDSEC
  0
SECTION
  2
BLOCKS
  0
BLOCK
  5
20
330
1F
100
AcDbEntity
  8
0
100
AcDbBlockBegin
  2
*Model_Space
 70
     0
 10
0.0
 20
0.0
 30
0.0
  3
*Model_Space
  1

  0
ENDBLK
  5
21
330
1F
100
AcDbEntity
  8
0
100
AcDbBlockEnd
  0
BLOCK
  5
1C
330
1B
100
AcDbEntity
 67
     1
  8
0
100
AcDbBlockBegin
  2
*Paper_Space
 70
     0
 10
0.0
 20
0.0
 30
0.0
  3
*Paper_Space
  1

  0
ENDBLK
  5
1D
330
1B
100
AcDbEntity
 67
     1
  8
0
100
AcDbBlockEnd
  0
BLOCK
  5
24
330
23
100
AcDbEntity
 67
     1
  8
0
100
AcDbBlockBegin
  2
*Paper_Space0
 70
     0
 10
0.0
 20
0.0
 30
0.0
  3
*Paper_Space0
  1

  0
ENDBLK
  5
25
330
23
100
AcDbEntity
 67
     1
  8
0
100
AcDbBlockEnd
  0
ENDSEC
  0
SECTION
  2
ENTITIES
  0
ARC
  5
A9
330
1F
100
AcDbEntity
  8
0
  6
Continuous
 62
     7
370
    25
100
AcDbCircle
 10
3808.313656043448
 20
3775.574928488978
 30
0.0
 40
23.49999999999967
100
AcDbArc
 50
142.7269717652398
 51
144.2533035175361
  0
ARC
  5
AA
330
1F
100
AcDbEntity
  8
0
  6
Continuous
 62
     7
370
    25
100
AcDbCircle
 10
3798.913656043448
 20
3775.574928488978
 30
0.0
 40
23.49999999999967
100
AcDbArc
 50
35.75365040022937
 51
37.27302823476023
  0
SPLINE
  5
AB
330
1F
100
AcDbEntity
  8
0
  6
Continuous
 62
     7
370
    25
100
AcDbSpline
210
0.0
220
0.0
230
1.0
 70
     8
 71
     3
 72
    11
 73
     7
 74
     0
 42
0.00000001
 43
0.0000000001
 40
0.0
 40
0.0
 40
0.0
 40
0.0
 40
0.2500125757623492
 40
0.5000001296211751
 40
0.7499876783289038
 40
0.9999999999999998
 40
0.9999999999999998
 40
0.9999999999999998
 40
0.9999999999999998
 10
3789.254847732906
 20
3789.318006077238
 30
0.0
 10
3788.378876604105
 20
3788.380400644931
 30
0.0
 10
3786.627022015951
 20
3786.505283618286
 30
0.0
 10
3784.793699949608
 20
3783.098312083339
 30
0.0
 10
3783.589577999136
 20
3779.421545766299
 30
0.0
 10
3783.438965846206
 20
3776.859833753385
 30
0.0
 10
3783.363656038631
 20
3775.578914285713
 30
0.0
  0
SPLINE
  5
AC
330
1F
100
AcDbEntity
  8
0
  6
Continuous
 62
     7
370
    25
100
AcDbSpline
210
0.0
220
0.0
230
1.0
 70
     8
 71
     3
 72
    11
 73
     7
 74
     0
 42
0.00000001
 43
0.0000000001
 40
0.0
 40
0.0
 40
0.0
 40
0.0
 40
0.2500123216711087
 40
0.4999998703788044
 40
0.7499874242376356
 40
1.0
 40
1.0
 40
1.0
 40
1.0
 10
3823.863656048259
 20
3775.578914285713
 30
0.0
 10
3823.788346240684
 20
3776.859833753385
 30
0.0
 10
3823.637734087752
 20
3779.421545766298
 30
0.0
 10
3822.433612137283
 20
3783.098312083339
 30
0.0
 10
3820.600290070942
 20
3786.505283618286
 30
0.0
 10
3818.848435482788
 20
3788.38040064493
 30
0.0
 10
3817.972464353985
 20
3789.318006077237
 30
0.0
  0
LINE
  5
AD
330
1F
100
AcDbEntity
  8
0
  6
Continuous
 62
     7
370
    25
100
AcDbLine
 10
3783.363656038631
 20
3775.578914285713
 30
0.0
 11
3783.363656038631
 21
3770.808914285714
 31
0.0
  0
LINE
  5
AE
330
1F
100
AcDbEntity
  8
0
  6
Continuous
 62
     7
370
    25
100
AcDbLine
 10
3823.863656048265
 20
3770.808914285714
 30
0.0
 11
3823.863656048265
 21
3775.578914285713
 31
0.0
  0
ARC
  5
AF
330
1F
100
AcDbEntity
  8
0
  6
Continuous
 62
     7
370
    25
100
AcDbCircle
 10
3803.956130672263
 20
3779.09694110302
 30
0.0
 40
17.41534090908782
100
AcDbArc
 50
39.00907709923002
 51
90.0
  0
ARC
  5
B0
330
1F
100
AcDbEntity
  8
0
  6
Continuous
 62
     7
370
    25
100
AcDbCircle
 10
3803.271181414632
 20
3779.09694110302
 30
0.0
 40
17.41534090908782
100
AcDbArc
 50
90.0
 51
140.99092290077
  0
LINE
  5
B1
330
1F
100
AcDbEntity
  8
0
  6
Continuous
 62
     7
370
    25
100
AcDbLine
 10
3803.956130672263
 20
3796.512282012108
 30
0.0
 11
3803.271181414632
 21
3796.512282012108
 31
0.0
  0
LINE
  5
B2
330
1F
100
AcDbEntity
  8
0
  6
Continuous
 62
     7
370
    25
100
AcDbLine
 10
3789.738656043448
 20
3790.05891428571
 30
0.0
 11
3789.743055765719
 21
3789.806854365591
 31
0.0
  0
LINE
  5
B3
330
1F
100
AcDbEntity
  8
0
  6
Continuous
 62
     7
370
    25
100
AcDbLine
 10
3817.484256321176
 20
3789.806854365591
 30
0.0
 11
3817.488656043448
 21
3790.05891428571
 31
0.0
  0
ARC
  5
B4
330
1F
100
AcDbEntity
  8
0
  6
Continuous
 62
     7
370
    25
100
AcDbCircle
 10
3996.613656604342
 20
3686.538036834667
 30
0.0
 40
3.000000000000454
100
AcDbArc
 50
180.0
 51
270.0000000000008
  0
LINE
  5
B5
330
1F
100
AcDbEntity
  8
0
  6
Continuous
 62
     7
370
    25
100
AcDbLine
 10
3996.613656604342
 20
3683.538036834666
 30
0.0
 11
4005.613656604341
 21
3683.538036834666
 31
0.0
  0
ARC
  5
B6
330
1F
100
AcDbEntity
  8
0
  6
Continuous
 62
     7
370
    25
100
AcDbCircle
 10
4005.613656604341
 20
3686.538036834667
 30
0.0
 40
3.000000000000454
100
AcDbArc
 50
270.0000000000008
 51
0.0
  0
ARC
  5
B7
330
1F
100
AcDbEntity
  8
0
  6
Continuous
 62
     7
370
    25
100
AcDbCircle
 10
3610.613656604341
 20
3686.538036837593
 30
0.0
 40
3.000000000000454
100
AcDbArc
 50
270.0000000000008
 51
0.0
  0
LINE
  5
B8
330
1F
100
AcDbEntity
  8
0
  6
Continuous
 62
     7
370
    25
100
AcDbLine
 10
3601.613656604341
 20
3683.538036837592
 30
0.0
 11
3610.613656604341
 21
3683.538036837592
 31
0.0
  0
ARC
  5
B9
330
1F
100
AcDbEntity
  8
0
  6
Continuous
 62
     7
370
    25
100
AcDbCircle
 10
3601.613656604341
 20
3686.538036837593
 30
0.0
 40
3.000000000000454
100
AcDbArc
 50
180.0
 51
270.0000000000008
  0
ARC
  5
BA
330
1F
100
AcDbEntity
  8
0
  6
Continuous
 62
     7
370
    25
100
AcDbCircle
 10
3541.47424284507
 20
3752.808914285714
 30
0.0
 40
3.000000000000454
100
AcDbArc
 50
90.0
 51
180.0
  0
ARC
  5
BB
330
1F
100
AcDbEntity
  8
0
  6
Continuous
 62
     7
370
    25
100
AcDbCircle
 10
3541.47424284507
 20
3743.808914285714
 30
0.0
 40
2.999999999999545
100
AcDbArc
 50
180.0
 51
270.0000000000008
  0
LINE
  5
BC
330
1F
100
AcDbEntity
  8
0
  6
Continuous
 62
     7
370
    25
100
AcDbLine
 10
3538.474242845071
 20
3752.808914285714
 30
0.0
 11
3538.474242845071
 21
3743.808914285714
 31
0.0
  0
ARC
  5
BD
330
1F
100
AcDbEntity
  8
0
  6
Continuous
 62
     7
370
    25
100
AcDbCircle
 10
4065.753070363611
 20
3743.808914285714
 30
0.0
 40
3.0
100
AcDbArc
 50
270.0000000000008
 51
0.0
  0
LINE
  5
BE
330
1F
100
AcDbEntity
  8
0
  6
Continuous
 62
     7
370
    25
100
AcDbLine
 10
4068.753070363611
 20
3743.808914285714
 30
0.0
 11
4068.753070363611
 21
3752.808914285714
 31
0.0
  0
ARC
  5
BF
330
1F
100
AcDbEntity
  8
0
  6
Continuous
 62
     7
370
    25
100
AcDbCircle
 10
4065.753070363611
 20
3752.808914285714
 30
0.0
 40
3.000000000000454
100
AcDbArc
 50
0.0
 51
90.0
  0
LINE
  5
C0
330
1F
100
AcDbEntity
  8
0
  6
Continuous
 62
     7
370
    25
100
AcDbLine
 10
3613.613656604341
 20
3692.781114226536
 30
0.0
 11
3993.613656604341
 21
3692.781114226536
 31
0.0
  0
ARC
  5
C1
330
1F
100
AcDbEntity
  8
0
  6
Continuous
 62
     7
370
    25
100
AcDbCircle
 10
3613.074251051259
 20
3736.04290008245
 30
0.0
 40
23.50000000000045
100
AcDbArc
 50
322.7269717652388
 51
324.2533033605898
  0
ARC
  5
C2
330
1F
100
AcDbEntity
  8
0
  6
Continuous
 62
     7
370
    25
100
AcDbCircle
 10
3622.474251051259
 20
3736.04290008245
 30
0.0
 40
23.50000000000022
100
AcDbArc
 50
215.7536505599486
 51
217.2730282347628
  0
SPLINE
  5
C3
330
1F
100
AcDbEntity
  8
0
  6
Continuous
 62
     7
370
    25
100
AcDbSpline
210
0.0
220
0.0
230
1.0
 70
     8
 71
     3
 72
    11
 73
     7
 74
     0
 42
0.00000001
 43
0.0000000001
 40
0.0
 40
0.0
 40
0.0
 40
0.0
 40
0.2500125757623517
 40
0.5000001296211784
 40
0.749987678328905
 40
0.9999999999999998
 40
0.9999999999999998
 40
0.9999999999999998
 40
0.9999999999999998
 10
3632.133059361799
 20
3722.299822494188
 30
0.0
 10
3633.009030490601
 20
3723.237427926497
 30
0.0
 10
3634.760885078755
 20
3725.112544953141
 30
0.0
 10
3636.594207145098
 20
3728.519516488088
 30
0.0
 10
3637.798329095571
 20
3732.196282805128
 30
0.0
 10
3637.948941248501
 20
3734.757994818042
 30
0.0
 10
3638.024251056076
 20
3736.038914285713
 30
0.0
  0
SPLINE
  5
C4
330
1F
100
AcDbEntity
  8
0
  6
Continuous
 62
     7
370
    25
100
AcDbSpline
210
0.0
220
0.0
230
1.0
 70
     8
 71
     3
 72
    11
 73
     7
 74
     0
 42
0.00000001
 43
0.0000000001
 40
0.0
 40
0.0
 40
0.0
 40
0.0
 40
0.2500123216711091
 40
0.4999998703788064
 40
0.7499874242376375
 40
1.0
 40
1.0
 40
1.0
 40
1.0
 10
3597.524251046447
 20
3736.038914285713
 30
0.0
 10
3597.599560854022
 20
3734.757994818042
 30
0.0
 10
3597.750173006954
 20
3732.196282805129
 30
0.0
 10
3598.954294957423
 20
3728.519516488088
 30
0.0
 10
3600.787617023764
 20
3725.112544953141
 30
0.0
 10
3602.539471611918
 20
3723.237427926497
 30
0.0
 10
3603.415442740721
 20
3722.29982249419
 30
0.0
  0
LINE
  5
C5
330
1F
100
AcDbEntity
  8
0
  6
Continuous
 62
     7
370
    25
100
AcDbLine
 10
3638.024251056076
 20
3736.038914285713
 30
0.0
 11
3638.024251056076
 21
3740.808914285713
 31
0.0
  0
LINE
  5
C6
330
1F
100
AcDbEntity
  8
0
  6
Continuous
 62
     7
370
    25
100
AcDbLine
 10
3597.524251046441
 20
3740.808914285713
 30
0.0
 11
3597.524251046441
 21
3736.038914285713
 31
0.0
  0
LINE
  5
C7
330
1F
100
AcDbEntity
  8
0
  6
Continuous
 62
     7
370
    25
100
AcDbLine
 10
3631.649251051257
 20
3721.558914285717
 30
0.0
 11
3631.644851328986
 21
3721.810974205836
 31
0.0
  0
LINE
  5
C8
330
1F
100
AcDbEntity
  8
0
  6
Continuous
 62
     7
370
    25
100
AcDbLine
 10
3603.90365077353
 20
3721.810974205836
 30
0.0
 11
3603.899251051259
 21
3721.558914285717
 31
0.0
  0
ARC
  5
C9
330
1F
100
AcDbEntity
  8
0
  6
Continuous
 62
     7
370
    25
100
AcDbCircle
 10
3617.431776422443
 20
3732.520887468406
 30
0.0
 40
17.41534090908782
100
AcDbArc
 50
219.0090770992308
 51
270.0000000000008
  0
ARC
  5
CA
330
1F
100
AcDbEntity
  8
0
  6
Continuous
 62
     7
370
    25
100
AcDbCircle
 10
3618.116725680073
 20
3732.520887468406
 30
0.0
 40
17.41534090908782
100
AcDbArc
 50
270.0000000000008
 51
320.9909229007708
  0
LINE
  5
CB
330
1F
100
AcDbEntity
  8
0
  6
Continuous
 62
     7
370
    25
100
AcDbLine
 10
3617.431776422443
 20
3715.105546559318
 30
0.0
 11
3618.116725680073
 21
3715.105546559318
 31
0.0
  0
ARC
  5
CC
330
1F
100
AcDbEntity
  8
0
  6
Continuous
 62
     7
370
    25
100
AcDbCircle
 10
3984.75290928784
 20
3736.04290008245
 30
0.0
 40
23.49999999999992
100
AcDbArc
 50
322.7269717652382
 51
324.2533033605916
  0
ARC
  5
CD
330
1F
100
AcDbEntity
  8
0
  6
Continuous
 62
     7
370
    25
100
AcDbCircle
 10
3994.152909287839
 20
3736.04290008245
 30
0.0
 40
23.49999999999987
100
AcDbArc
 50
215.7536505599492
 51
217.2730282347635
  0
SPLINE
  5
CE
330
1F
100
AcDbEntity
  8
0
  6
Continuous
 62
     7
370
    25
100
AcDbSpline
210
0.0
220
0.0
230
1.0
 70
     8
 71
     3
 72
    11
 73
     7
 74
     0
 42
0.00000001
 43
0.0000000001
 40
0.0
 40
0.0
 40
0.0
 40
0.0
 40
0.2500125757623461
 40
0.5000001296211736
 40
0.7499876783289029
 40
1.0
 40
1.0
 40
1.0
 40
1.0
 10
4003.811717598381
 20
3722.29982249419
 30
0.0
 10
4004.687688727183
 20
3723.237427926497
 30
0.0
 10
4006.439543315336
 20
3725.112544953142
 30
0.0
 10
4008.272865381679
 20
3728.519516488088
 30
0.0
 10
4009.476987332152
 20
3732.196282805129
 30
0.0
 10
4009.627599485082
 20
3734.757994818042
 30
0.0
 10
4009.702909292657
 20
3736.038914285714
 30
0.0
  0
SPLINE
  5
CF
330
1F
100
AcDbEntity
  8
0
  6
Continuous
 62
     7
370
    25
100
AcDbSpline
210
0.0
220
0.0
230
1.0
 70
     8
 71
     3
 72
    11
 73
     7
 74
     0
 42
0.00000001
 43
0.0000000001
 40
0.0
 40
0.0
 40
0.0
 40
0.0
 40
0.25001232167111
 40
0.4999998703788049
 40
0.7499874242376351
 40
1.0
 40
1.0
 40
1.0
 40
1.0
 10
3969.202909283028
 20
3736.038914285714
 30
0.0
 10
3969.278219090603
 20
3734.757994818043
 30
0.0
 10
3969.428831243534
 20
3732.196282805129
 30
0.0
 10
3970.632953194004
 20
3728.51951648809
 30
0.0
 10
3972.466275260345
 20
3725.112544953142
 30
0.0
 10
3974.2181298485
 20
3723.237427926498
 30
0.0
 10
3975.094100977301
 20
3722.299822494191
 30
0.0
  0
LINE
  5
D0
330
1F
100
AcDbEntity
  8
0
  6
Continuous
 62
     7
370
    25
100
AcDbLine
 10
4009.702909292657
 20
3736.038914285714
 30
0.0
 11
4009.702909292657
 21
3740.808914285714
 31
0.0
  0
LINE
  5
D1
330
1F
100
AcDbEntity
  8
0
  6
Continuous
 62
     7
370
    25
100
AcDbLine
 10
3969.202909283022
 20
3740.808914285714
 30
0.0
 11
3969.202909283022
 21
3736.038914285714
 31
0.0
  0
LINE
  5
D2
330
1F
100
AcDbEntity
  8
0
  6
Continuous
 62
     7
370
    25
100
AcDbLine
 10
4003.327909287839
 20
3721.558914285717
 30
0.0
 11
4003.323509565567
 21
3721.810974205836
 31
0.0
  0
LINE
  5
D3
330
1F
100
AcDbEntity
  8
0
  6
Continuous
 62
     7
370
    25
100
AcDbLine
 10
3975.582309010112
 20
3721.810974205836
 30
0.0
 11
3975.577909287841
 21
3721.558914285717
 31
0.0
  0
ARC
  5
D4
330
1F
100
AcDbEntity
  8
0
  6
Continuous
 62
     7
370
    25
100
AcDbCircle
 10
3989.110434659025
 20
3732.520887468407
 30
0.0
 40
17.41534090908782
100
AcDbArc
 50
219.0090770992308
 51
270.0000000000008
  0
ARC
  5
D5
330
1F
100
AcDbEntity
  8
0
  6
Continuous
 62
     7
370
    25
100
AcDbCircle
 10
3989.795383916655
 20
3732.520887468407
 30
0.0
 40
17.41534090908782
100
AcDbArc
 50
270.0000000000008
 51
320.9909229007708
  0
LINE
  5
D6
330
1F
100
AcDbEntity
  8
0
  6
Continuous
 62
     7
370
    25
100
AcDbLine
 10
3989.110434659025
 20
3715.105546559319
 30
0.0
 11
3989.795383916655
 21
3715.105546559319
 31
0.0
  0
ARC
  5
D7
330
1F
100
AcDbEntity
  8
0
  6
Continuous
 62
     7
370
    25
100
AcDbCircle
 10
3575.67424284508
 20
3736.04290008245
 30
0.0
 40
23.50000000000022
100
AcDbArc
 50
215.7536504020318
 51
217.2730282347628
  0
SPLINE
  5
D8
330
1F
100
AcDbEntity
  8
0
  6
Continuous
 62
     7
370
    25
100
AcDbSpline
210
0.0
220
0.0
230
1.0
 70
     8
 71
     3
 72
    11
 73
     7
 74
     0
 42
0.00000001
 43
0.0000000001
 40
0.0
 40
0.0
 40
0.0
 40
0.0
 40
0.2500123216711103
 40
0.4999998703788041
 40
0.7499874242376356
 40
0.9999999999999998
 40
0.9999999999999998
 40
0.9999999999999998
 40
0.9999999999999998
 10
3550.724242840268
 20
3736.038914285714
 30
0.0
 10
3550.799552647845
 20
3734.757994818043
 30
0.0
 10
3550.950164800776
 20
3732.196282805129
 30
0.0
 10
3552.154286751245
 20
3728.519516488088
 30
0.0
 10
3553.987608817585
 20
3725.112544953142
 30
0.0
 10
3555.73946340574
 20
3723.237427926497
 30
0.0
 10
3556.615434534542
 20
3722.299822494191
 30
0.0
  0
LINE
  5
D9
330
1F
100
AcDbEntity
  8
0
  6
Continuous
 62
     7
370
    25
100
AcDbLine
 10
3550.724242840263
 20
3740.808914285714
 30
0.0
 11
3550.724242840263
 21
3736.038914285714
 31
0.0
  0
ARC
  5
DA
330
1F
100
AcDbEntity
  8
0
  6
Continuous
 62
     7
370
    25
100
AcDbCircle
 10
3570.631768216265
 20
3732.520887468407
 30
0.0
 40
17.41534090908782
100
AcDbArc
 50
219.0090770992308
 51
270.0000000000008
  0
LWPOLYLINE
  5
DB
330
1F
100
AcDbEntity
  8
0
  6
Continuous
 62
     7
370
    25
100
AcDbPolyline
 90
        3
 70
   128
 43
0.0
 10
3571.316717473895
 20
3715.105546559319
 10
3573.250092478749
 20
3715.213196690306
 10
3573.613676834844
 20
3715.257687397913
  0
LINE
  5
DC
330
1F
100
AcDbEntity
  8
0
  6
Continuous
 62
     7
370
    25
100
AcDbLine
 10
3570.631768216265
 20
3715.105546559319
 30
0.0
 11
3571.316717473895
 21
3715.105546559319
 31
0.0
  0
LINE
  5
DD
330
1F
100
AcDbEntity
  8
0
  6
Continuous
 62
     7
370
    25
100
AcDbLine
 10
3557.103642567352
 20
3721.810974205836
 30
0.0
 11
3557.099242845081
 21
3721.558914285717
 31
0.0
  0
ARC
  5
DE
330
1F
100
AcDbEntity
  8
0
  6
Continuous
 62
     7
370
    25
100
AcDbCircle
 10
4031.553070363602
 20
3736.04290008245
 30
0.0
 40
23.50000000000038
100
AcDbArc
 50
322.7269717652388
 51
324.2533035175382
  0
SPLINE
  5
DF
330
1F
100
AcDbEntity
  8
0
  6
Continuous
 62
     7
370
    25
100
AcDbSpline
210
0.0
220
0.0
230
1.0
 70
     8
 71
     3
 72
    11
 73
     7
 74
     0
 42
0.00000001
 43
0.0000000001
 40
0.0
 40
0.0
 40
0.0
 40
0.0
 40
0.2500125757623583
 40
0.5000001296211934
 40
0.7499876783288904
 40
0.9999999999999998
 40
0.9999999999999998
 40
0.9999999999999998
 40
0.9999999999999998
 10
4050.611878674144
 20
3722.299822494188
 30
0.0
 10
4051.487849802946
 20
3723.237427926496
 30
0.0
 10
4053.2397043911
 20
3725.11254495314
 30
0.0
 10
4055.073026457442
 20
3728.519516488088
 30
0.0
 10
4056.277148407913
 20
3732.196282805129
 30
0.0
 10
4056.427760560843
 20
3734.757994818042
 30
0.0
 10
4056.50307036842
 20
3736.038914285714
 30
0.0
  0
LINE
  5
E0
330
1F
100
AcDbEntity
  8
0
  6
Continuous
 62
     7
370
    25
100
AcDbLine
 10
4056.50307036842
 20
3736.038914285714
 30
0.0
 11
4056.50307036842
 21
3740.808914285714
 31
0.0
  0
LWPOLYLINE
  5
E1
330
1F
100
AcDbEntity
  8
0
  6
Continuous
 62
     7
370
    25
100
AcDbPolyline
 90
        3
 70
   128
 43
0.0
 10
4033.613676834843
 20
3715.257682014413
 10
4033.977220729934
 20
3715.213196690307
 10
4035.910595734788
 20
3715.105546559319
  0
ARC
  5
E2
330
1F
100
AcDbEntity
  8
0
  6
Continuous
 62
     7
370
    25
100
AcDbCircle
 10
4036.59554499242
 20
3732.520887468407
 30
0.0
 40
17.41534090908797
100
AcDbArc
 50
269.9999999999948
 51
320.9909229007654
  0
LINE
  5
E3
330
1F
100
AcDbEntity
  8
0
  6
Continuous
 62
     7
370
    25
100
AcDbLine
 10
4035.910595734788
 20
3715.105546559319
 30
0.0
 11
4036.595544992418
 21
3715.105546559319
 31
0.0
  0
LINE
  5
E4
330
1F
100
AcDbEntity
  8
0
  6
Continuous
 62
     7
370
    25
100
AcDbLine
 10
4050.128070363603
 20
3721.558914285715
 30
0.0
 11
4050.123670641331
 21
3721.810974205836
 31
0.0
  0
ARC
  5
E5
330
1F
100
AcDbEntity
  8
0
  6
Continuous
 62
     7
370
    25
100
AcDbCircle
 10
3994.152909576467
 20
3775.574928488977
 30
0.0
 40
23.50000000000041
100
AcDbArc
 50
142.726971765238
 51
144.2533004690291
  0
ARC
  5
E6
330
1F
100
AcDbEntity
  8
0
  6
Continuous
 62
     7
370
    25
100
AcDbCircle
 10
3984.752909576467
 20
3775.574928488978
 30
0.0
 40
23.49999999999941
100
AcDbArc
 50
35.75365040023092
 51
37.2730282347609
  0
SPLINE
  5
E7
330
1F
100
AcDbEntity
  8
0
  6
Continuous
 62
     7
370
    25
100
AcDbSpline
210
0.0
220
0.0
230
1.0
 70
     8
 71
     3
 72
    11
 73
     7
 74
     0
 42
0.00000001
 43
0.0000000001
 40
0.0
 40
0.0
 40
0.0
 40
0.0
 40
0.2500123216711016
 40
0.499999870378799
 40
0.7499874242376342
 40
1.0
 40
1.0
 40
1.0
 40
1.0
 10
4009.702909581284
 20
3775.578914285713
 30
0.0
 10
4009.627599773708
 20
3776.859833753385
 30
0.0
 10
4009.476987620776
 20
3779.421545766299
 30
0.0
 10
4008.272865670305
 20
3783.098312083339
 30
0.0
 10
4006.439543603963
 20
3786.505283618288
 30
0.0
 10
4004.687689015809
 20
3788.380400644932
 30
0.0
 10
4003.811717887006
 20
3789.31800607724
 30
0.0
  0
SPLINE
  5
E8
330
1F
100
AcDbEntity
  8
0
  6
Continuous
 62
     7
370
    25
100
AcDbSpline
210
0.0
220
0.0
230
1.0
 70
     8
 71
     3
 72
    11
 73
     7
 74
     0
 42
0.00000001
 43
0.0000000001
 40
0.0
 40
0.0
 40
0.0
 40
0.0
 40
0.2500125757623687
 40
0.5000001296211938
 40
0.7499876783288882
 40
1.0
 40
1.0
 40
1.0
 40
1.0
 10
3975.094101265926
 20
3789.318006077239
 30
0.0
 10
3974.218130137123
 20
3788.380400644932
 30
0.0
 10
3972.466275548969
 20
3786.505283618288
 30
0.0
 10
3970.632953482628
 20
3783.098312083339
 30
0.0
 10
3969.428831532157
 20
3779.421545766298
 30
0.0
 10
3969.278219379225
 20
3776.859833753385
 30
0.0
 10
3969.202909571649
 20
3775.578914285713
 30
0.0
  0
LINE
  5
E9
330
1F
100
AcDbEntity
  8
0
  6
Continuous
 62
     7
370
    25
100
AcDbLine
 10
3969.202909571649
 20
3775.578914285713
 30
0.0
 11
3969.202909571649
 21
3770.808914285714
 31
0.0
  0
LINE
  5
EA
330
1F
100
AcDbEntity
  8
0
  6
Continuous
 62
     7
370
    25
100
AcDbLine
 10
4009.702909581284
 20
3770.808914285713
 30
0.0
 11
4009.702909581284
 21
3775.578914285713
 31
0.0
  0
ARC
  5
EB
330
1F
100
AcDbEntity
  8
0
  6
Continuous
 62
     7
370
    25
100
AcDbCircle
 10
3989.795384205283
 20
3779.09694110302
 30
0.0
 40
17.41534090908797
100
AcDbArc
 50
39.00907709923539
 51
90.00000000000747
  0
ARC
  5
EC
330
1F
100
AcDbEntity
  8
0
  6
Continuous
 62
     7
370
    25
100
AcDbCircle
 10
3989.110434947654
 20
3779.09694110302
 30
0.0
 40
17.41534090908803
100
AcDbArc
 50
90.000000000006
 51
140.9909229007763
  0
LINE
  5
ED
330
1F
100
AcDbEntity
  8
0
  6
Continuous
 62
     7
370
    25
100
AcDbLine
 10
3989.795384205282
 20
3796.512282012108
 30
0.0
 11
3989.110434947651
 21
3796.512282012108
 31
0.0
  0
LINE
  5
EE
330
1F
100
AcDbEntity
  8
0
  6
Continuous
 62
     7
370
    25
100
AcDbLine
 10
3975.577909576467
 20
3790.058914285709
 30
0.0
 11
3975.582309298739
 21
3789.806854365591
 31
0.0
  0
LINE
  5
EF
330
1F
100
AcDbEntity
  8
0
  6
Continuous
 62
     7
370
    25
100
AcDbLine
 10
4003.323509854196
 20
3789.806854365591
 30
0.0
 11
4003.327909576466
 21
3790.058914285712
 31
0.0
  0
ARC
  5
F0
330
1F
100
AcDbEntity
  8
0
  6
Continuous
 62
     7
370
    25
100
AcDbCircle
 10
3622.474251339885
 20
3775.574928488977
 30
0.0
 40
23.50000000000028
100
AcDbArc
 50
142.726971765238
 51
144.2533035175358
  0
ARC
  5
F1
330
1F
100
AcDbEntity
  8
0
  6
Continuous
 62
     7
370
    25
100
AcDbCircle
 10
3613.074251339885
 20
3775.574928488977
 30
0.0
 40
23.50000000000031
100
AcDbArc
 50
35.75365040023207
 51
37.27302823476199
  0
SPLINE
  5
F2
330
1F
100
AcDbEntity
  8
0
  6
Continuous
 62
     7
370
    25
100
AcDbSpline
210
0.0
220
0.0
230
1.0
 70
     8
 71
     3
 72
    11
 73
     7
 74
     0
 42
0.00000001
 43
0.0000000001
 40
0.0
 40
0.0
 40
0.0
 40
0.0
 40
0.2500125757623481
 40
0.5000001296211765
 40
0.7499876783289055
 40
1.0
 40
1.0
 40
1.0
 40
1.0
 10
3603.415443029344
 20
3789.318006077238
 30
0.0
 10
3602.539471900542
 20
3788.380400644931
 30
0.0
 10
3600.787617312389
 20
3786.505283618286
 30
0.0
 10
3598.954295246045
 20
3783.098312083339
 30
0.0
 10
3597.750173295573
 20
3779.421545766299
 30
0.0
 10
3597.599561142643
 20
3776.859833753385
 30
0.0
 10
3597.524251335068
 20
3775.578914285713
 30
0.0
  0
SPLINE
  5
F3
330
1F
100
AcDbEntity
  8
0
  6
Continuous
 62
     7
370
    25
100
AcDbSpline
210
0.0
220
0.0
230
1.0
 70
     8
 71
     3
 72
    11
 73
     7
 74
     0
 42
0.00000001
 43
0.0000000001
 40
0.0
 40
0.0
 40
0.0
 40
0.0
 40
0.2500123216711088
 40
0.4999998703788046
 40
0.7499874242376309
 40
1.0
 40
1.0
 40
1.0
 40
1.0
 10
3638.024251344698
 20
3775.578914285713
 30
0.0
 10
3637.948941537121
 20
3776.859833753384
 30
0.0
 10
3637.79832938419
 20
3779.421545766298
 30
0.0
 10
3636.59420743372
 20
3783.098312083338
 30
0.0
 10
3634.76088536738
 20
3786.505283618285
 30
0.0
 10
3633.009030779226
 20
3788.380400644929
 30
0.0
 10
3632.133059650423
 20
3789.318006077237
 30
0.0
  0
LINE
  5
F4
330
1F
100
AcDbEntity
  8
0
  6
Continuous
 62
     7
370
    25
100
AcDbLine
 10
3597.524251335068
 20
3775.578914285713
 30
0.0
 11
3597.524251335068
 21
3770.808914285714
 31
0.0
  0
LINE
  5
F5
330
1F
100
AcDbEntity
  8
0
  6
Continuous
 62
     7
370
    25
100
AcDbLine
 10
3638.024251344702
 20
3770.808914285713
 30
0.0
 11
3638.024251344702
 21
3775.578914285713
 31
0.0
  0
ARC
  5
F6
330
1F
100
AcDbEntity
  8
0
  6
Continuous
 62
     7
370
    25
100
AcDbCircle
 10
3618.116725968701
 20
3779.09694110302
 30
0.0
 40
17.41534090908771
100
AcDbArc
 50
39.0090770992319
 51
90.0
  0
ARC
  5
F7
330
1F
100
AcDbEntity
  8
0
  6
Continuous
 62
     7
370
    25
100
AcDbCircle
 10
3617.43177671107
 20
3779.09694110302
 30
0.0
 40
17.41534090908782
100
AcDbArc
 50
90.0
 51
140.99092290077
  0
LINE
  5
F8
330
1F
100
AcDbEntity
  8
0
  6
Continuous
 62
     7
370
    25
100
AcDbLine
 10
3618.116725968701
 20
3796.512282012108
 30
0.0
 11
3617.43177671107
 21
3796.512282012108
 31
0.0
  0
LINE
  5
F9
330
1F
100
AcDbEntity
  8
0
  6
Continuous
 62
     7
370
    25
100
AcDbLine
 10
3603.899251339885
 20
3790.05891428571
 30
0.0
 11
3603.903651062157
 21
3789.806854365591
 31
0.0
  0
LINE
  5
FA
330
1F
100
AcDbEntity
  8
0
  6
Continuous
 62
     7
370
    25
100
AcDbLine
 10
3631.644851617612
 20
3789.80685436559
 30
0.0
 11
3631.649251339885
 21
3790.05891428571
 31
0.0
  0
ARC
  5
FB
330
1F
100
AcDbEntity
  8
0
  6
Continuous
 62
     7
370
    25
100
AcDbCircle
 10
4040.953070363603
 20
3775.574928488978
 30
0.0
 40
23.50000000000024
100
AcDbArc
 50
142.7269717652398
 51
144.2533004690315
  0
SPLINE
  5
FC
330
1F
100
AcDbEntity
  8
0
  6
Continuous
 62
     7
370
    25
100
AcDbSpline
210
0.0
220
0.0
230
1.0
 70
     8
 71
     3
 72
    11
 73
     7
 74
     0
 42
0.00000001
 43
0.0000000001
 40
0.0
 40
0.0
 40
0.0
 40
0.0
 40
0.2500125757623529
 40
0.5000001296211872
 40
0.7499876783288885
 40
0.9999999999999998
 40
0.9999999999999998
 40
0.9999999999999998
 40
0.9999999999999998
 10
4021.894262053062
 20
3789.318006077239
 30
0.0
 10
4021.018290924259
 20
3788.380400644932
 30
0.0
 10
4019.266436336105
 20
3786.505283618287
 30
0.0
 10
4017.433114269763
 20
3783.098312083339
 30
0.0
 10
4016.228992319294
 20
3779.421545766299
 30
0.0
 10
4016.078380166361
 20
3776.859833753385
 30
0.0
 10
4016.003070358785
 20
3775.578914285713
 30
0.0
  0
LINE
  5
FD
330
1F
100
AcDbEntity
  8
0
  6
Continuous
 62
     7
370
    25
100
AcDbLine
 10
4016.003070358785
 20
3775.578914285713
 30
0.0
 11
4016.003070358785
 21
3772.808914285714
 31
0.0
  0
ARC
  5
FE
330
1F
100
AcDbEntity
  8
0
  6
Continuous
 62
     7
370
    25
100
AcDbCircle
 10
4036.59554499242
 20
3779.09694110302
 30
0.0
 40
17.4153409090879
100
AcDbArc
 50
68.01857507225038
 51
90.000000000006
  0
ARC
  5
FF
330
1F
100
AcDbEntity
  8
0
  6
Continuous
 62
     7
370
    25
100
AcDbCircle
 10
4035.910595734789
 20
3779.09694110302
 30
0.0
 40
17.41534090908771
100
AcDbArc
 50
90.000000000006
 51
140.9909229007753
  0
LINE
  5
100
330
1F
100
AcDbEntity
  8
0
  6
Continuous
 62
     7
370
    25
100
AcDbLine
 10
4036.595544992418
 20
3796.512282012108
 30
0.0
 11
4035.910595734788
 21
3796.512282012108
 31
0.0
  0
LINE
  5
101
330
1F
100
AcDbEntity
  8
0
  6
Continuous
 62
     7
370
    25
100
AcDbLine
 10
4022.378070363604
 20
3790.058914285709
 30
0.0
 11
4022.382470085875
 21
3789.806854365591
 31
0.0
  0
ARC
  5
102
330
1F
100
AcDbEntity
  8
0
  6
Continuous
 62
     7
370
    25
100
AcDbCircle
 10
3566.274242845081
 20
3775.574928488978
 30
0.0
 40
23.49999999999978
100
AcDbArc
 50
35.75365040023027
 51
37.27302823476023
  0
SPLINE
  5
103
330
1F
100
AcDbEntity
  8
0
  6
Continuous
 62
     7
370
    25
100
AcDbSpline
210
0.0
220
0.0
230
1.0
 70
     8
 71
     3
 72
    11
 73
     7
 74
     0
 42
0.00000001
 43
0.0000000001
 40
0.0
 40
0.0
 40
0.0
 40
0.0
 40
0.2500123216711115
 40
0.4999998703788111
 40
0.749987424237642
 40
1.0
 40
1.0
 40
1.0
 40
1.0
 10
3591.224242849892
 20
3775.578914285713
 30
0.0
 10
3591.148933042316
 20
3776.859833753385
 30
0.0
 10
3590.998320889385
 20
3779.421545766298
 30
0.0
 10
3589.794198938915
 20
3783.098312083338
 30
0.0
 10
3587.960876872574
 20
3786.505283618285
 30
0.0
 10
3586.20902228442
 20
3788.380400644929
 30
0.0
 10
3585.333051155618
 20
3789.318006077237
 30
0.0
  0
LINE
  5
104
330
1F
100
AcDbEntity
  8
0
  6
Continuous
 62
     7
370
    25
100
AcDbLine
 10
3591.224242849898
 20
3770.808914285714
 30
0.0
 11
3591.224242849898
 21
3775.578914285714
 31
0.0
  0
LINE
  5
105
330
1F
100
AcDbEntity
  8
0
  6
Continuous
 62
     7
370
    25
100
AcDbLine
 10
3584.844843122808
 20
3789.806854365591
 30
0.0
 11
3584.84924284508
 21
3790.05891428571
 31
0.0
  0
ARC
  5
106
330
1F
100
AcDbEntity
  8
0
  6
Continuous
 62
     7
370
    25
100
AcDbCircle
 10
3571.316717473895
 20
3779.09694110302
 30
0.0
 40
17.41534090908782
100
AcDbArc
 50
39.00907709923002
 51
90.0
  0
ARC
  5
107
330
1F
100
AcDbEntity
  8
0
  6
Continuous
 62
     7
370
    25
100
AcDbCircle
 10
3570.631768216265
 20
3779.09694110302
 30
0.0
 40
17.41534090908771
100
AcDbArc
 50
90.0
 51
115.6039478999216
  0
LINE
  5
108
330
1F
100
AcDbEntity
  8
0
  6
Continuous
 62
     7
370
    25
100
AcDbLine
 10
3571.316717473895
 20
3796.512282012108
 30
0.0
 11
3570.631768216265
 21
3796.512282012108
 31
0.0
  0
LINE
  5
109
330
1F
100
AcDbEntity
  8
0
  6
Continuous
 62
     7
370
    25
100
AcDbLine
 10
3591.043033821783
 20
3770.808914285713
 30
0.0
 11
3591.043033821783
 21
3771.808914285713
 31
0.0
  0
LINE
  5
10A
330
1F
100
AcDbEntity
  8
0
  6
Continuous
 62
     7
370
    25
100
AcDbLine
 10
3574.043033821784
 20
3771.808914285713
 30
0.0
 11
3574.043033821784
 21
3770.808914285713
 31
0.0
  0
LINE
  5
10B
330
1F
100
AcDbEntity
  8
0
  6
Continuous
 62
     7
370
    25
100
AcDbLine
 10
3591.043033821783
 20
3771.808914285713
 30
0.0
 11
3590.043033821783
 21
3772.808914285714
 31
0.0
  0
LINE
  5
10C
330
1F
100
AcDbEntity
  8
0
  6
Continuous
 62
     7
370
    25
100
AcDbLine
 10
3575.043033821784
 20
3772.808914285714
 30
0.0
 11
3574.043033821784
 21
3771.808914285713
 31
0.0
  0
LINE
  5
10D
330
1F
100
AcDbEntity
  8
0
  6
Continuous
 62
     7
370
    25
100
AcDbLine
 10
4031.613890795621
 20
3770.808914285713
 30
0.0
 11
4031.613890795621
 21
3771.808914285713
 31
0.0
  0
LINE
  5
10E
330
1F
100
AcDbEntity
  8
0
  6
Continuous
 62
     7
370
    25
100
AcDbLine
 10
4014.613890795621
 20
3771.808914285713
 30
0.0
 11
4014.613890795621
 21
3770.808914285713
 31
0.0
  0
LINE
  5
10F
330
1F
100
AcDbEntity
  8
0
  6
Continuous
 62
     7
370
    25
100
AcDbLine
 10
4031.613890795621
 20
3771.808914285713
 30
0.0
 11
4030.613890795621
 21
3772.808914285714
 31
0.0
  0
LINE
  5
110
330
1F
100
AcDbEntity
  8
0
  6
Continuous
 62
     7
370
    25
100
AcDbLine
 10
4015.613890795622
 20
3772.808914285714
 30
0.0
 11
4014.613890795621
 21
3771.808914285713
 31
0.0
  0
ARC
  5
111
330
1F
100
AcDbEntity
  8
0
  6
Continuous
 62
     7
370
    25
100
AcDbCircle
 10
4073.113890795621
 20
3754.513914285714
 30
0.0
 40
4.705000000000381
100
AcDbArc
 50
231.9487879248664
 51
270.0000000000008
  0
ARC
  5
112
330
1F
100
AcDbEntity
  8
0
  6
Continuous
 62
     7
370
    25
100
AcDbCircle
 10
4083.113890795622
 20
3754.513914285714
 30
0.0
 40
4.705000000000381
100
AcDbArc
 50
270.0000000000064
 51
308.0512120751396
  0
LINE
  5
113
330
1F
100
AcDbEntity
  8
0
  6
Continuous
 62
     7
370
    25
100
AcDbLine
 10
4070.213890795622
 20
3755.808914285714
 30
0.0
 11
4070.213890795622
 21
3750.808914285714
 31
0.0
  0
LINE
  5
114
330
1F
100
AcDbEntity
  8
0
  6
Continuous
 62
     7
370
    25
100
AcDbLine
 10
4086.013890795622
 20
3750.808914285714
 30
0.0
 11
4086.013890795622
 21
3755.808914285714
 31
0.0
  0
ARC
  5
115
330
1F
100
AcDbEntity
  8
0
  6
Continuous
 62
     7
370
    25
100
AcDbCircle
 10
3523.113890795622
 20
3754.513914285701
 30
0.0
 40
4.705000000000278
100
AcDbArc
 50
231.9487879248577
 51
269.9999999999897
  0
ARC
  5
116
330
1F
100
AcDbEntity
  8
0
  6
Continuous
 62
     7
370
    25
100
AcDbCircle
 10
3533.113890795622
 20
3754.513914285701
 30
0.0
 40
4.704999999999927
100
AcDbArc
 50
270.0000000000008
 51
308.0512120751309
  0
LINE
  5
117
330
1F
100
AcDbEntity
  8
0
  6
Continuous
 62
     7
370
    25
100
AcDbLine
 10
3520.213890795622
 20
3755.808914285701
 30
0.0
 11
3520.213890795622
 21
3750.808914285701
 31
0.0
  0
LINE
  5
118
330
1F
100
AcDbEntity
  8
0
  6
Continuous
 62
     7
370
    25
100
AcDbLine
 10
3536.013890795622
 20
3750.808914285701
 30
0.0
 11
3536.013890795622
 21
3755.808914285701
 31
0.0
  0
LINE
  5
119
330
1F
100
AcDbEntity
  8
0
  6
Continuous
 62
     7
370
    25
100
AcDbLine
 10
4113.113890795622
 20
5340.808914285712
 30
0.0
 11
3493.113890795622
 21
5340.808914285712
 31
0.0
  0
ARC
  5
11A
330
1F
100
AcDbEntity
  8
0
  6
Continuous
 62
     7
370
    25
100
AcDbCircle
 10
4113.113890795622
 20
3840.808914285714
 30
0.0
 40
1500.0
100
AcDbArc
 50
0.0
 51
90.0
  0
LINE
  5
11B
330
1F
100
AcDbEntity
  8
0
  6
Continuous
 62
     7
370
    25
100
AcDbLine
 10
5613.113890795622
 20
3770.808914285713
 30
0.0
 11
5613.113890795622
 21
3840.808914285714
 31
0.0
  0
ARC
  5
11C
330
1F
100
AcDbEntity
  8
0
  6
Continuous
 62
     7
370
    25
100
AcDbCircle
 10
4113.113890795622
 20
3770.808914285713
 30
0.0
 40
1500.0
100
AcDbArc
 50
270.0000000000008
 51
0.0
  0
LINE
  5
11D
330
1F
100
AcDbEntity
  8
0
  6
Continuous
 62
     7
370
    25
100
AcDbLine
 10
3493.113890795622
 20
2270.808914285713
 30
0.0
 11
4113.113890795622
 21
2270.808914285713
 31
0.0
  0
ARC
  5
11E
330
1F
100
AcDbEntity
  8
0
  6
Continuous
 62
     7
370
    25
100
AcDbCircle
 10
3493.113890795622
 20
3770.808914285713
 30
0.0
 40
1500.0
100
AcDbArc
 50
180.0
 51
270.0000000000008
  0
LINE
  5
11F
330
1F
100
AcDbEntity
  8
0
  6
Continuous
 62
     7
370
    25
100
AcDbLine
 10
1993.113890795622
 20
3840.808914285714
 30
0.0
 11
1993.113890795622
 21
3770.808914285713
 31
0.0
  0
ARC
  5
120
330
1F
100
AcDbEntity
  8
0
  6
Continuous
 62
     7
370
    25
100
AcDbCircle
 10
3493.113890795622
 20
3840.808914285714
 30
0.0
 40
1500.0
100
AcDbArc
 50
90.0
 51
180.0
  0
LINE
  5
121
330
1F
100
AcDbEntity
  8
0
  6
Continuous
 62
     7
370
    25
100
AcDbLine
 10
4113.113890795622
 20
3770.808914285713
 30
0.0
 11
4113.113890795622
 21
3776.921354484056
 31
0.0
  0
LINE
  5
122
330
1F
100
AcDbEntity
  8
0
  6
Continuous
 62
     7
370
    25
100
AcDbLine
 10
4113.113890795622
 20
3777.054505810077
 30
0.0
 11
4113.113890795622
 21
3779.74978163031
 31
0.0
  0
LINE
  5
123
330
1F
100
AcDbEntity
  8
0
  6
Continuous
 62
     7
370
    25
100
AcDbLine
 10
4113.113890795622
 20
3779.882932808923
 30
0.0
 11
4113.113890795622
 21
3780.726085572916
 31
0.0
  0
LINE
  5
124
330
1F
100
AcDbEntity
  8
0
  6
Continuous
 62
     7
370
    25
100
AcDbLine
 10
4113.113890795622
 20
3830.886213578071
 30
0.0
 11
4113.113890795622
 21
3831.734897378968
 31
0.0
  0
LINE
  5
125
330
1F
100
AcDbEntity
  8
0
  6
Continuous
 62
     7
370
    25
100
AcDbLine
 10
4113.113890795622
 20
3831.868047804185
 30
0.0
 11
4113.113890795622
 21
3834.563324370107
 31
0.0
  0
LINE
  5
126
330
1F
100
AcDbEntity
  8
0
  6
Continuous
 62
     7
370
    25
100
AcDbLine
 10
4113.113890795622
 20
3834.696474956145
 30
0.0
 11
4113.113890795622
 21
3840.808914285714
 31
0.0
  0
LINE
  5
127
330
1F
100
AcDbEntity
  8
0
  6
Continuous
 62
     7
370
    25
100
AcDbLine
 10
4103.349342259382
 20
3770.808914285713
 30
0.0
 11
4104.039886112118
 21
3770.808914285713
 31
0.0
  0
LINE
  5
128
330
1F
100
AcDbEntity
  8
0
  6
Continuous
 62
     7
370
    25
100
AcDbLine
 10
4104.17301134143
 20
3770.808914285713
 30
0.0
 11
4106.868313187665
 21
3770.808914285713
 31
0.0
  0
LINE
  5
129
330
1F
100
AcDbEntity
  8
0
  6
Continuous
 62
     7
370
    25
100
AcDbLine
 10
4107.001438410389
 20
3770.808914285713
 30
0.0
 11
4113.113890795622
 21
3770.808914285713
 31
0.0
  0
LINE
  5
12A
330
1F
100
AcDbEntity
  8
0
  6
Continuous
 62
     7
370
    25
100
AcDbLine
 10
4043.113890795622
 20
3840.808914285714
 30
0.0
 11
4043.113890795622
 21
3795.246407563855
 31
0.0
  0
LINE
  5
12B
330
1F
100
AcDbEntity
  8
0
  6
Continuous
 62
     7
370
    25
100
AcDbLine
 10
4113.113890795622
 20
3840.808914285714
 30
0.0
 11
4107.001429698452
 21
3840.808914285714
 31
0.0
  0
LINE
  5
12C
330
1F
100
AcDbEntity
  8
0
  6
Continuous
 62
     7
370
    25
100
AcDbLine
 10
4106.868321053732
 20
3840.808914285714
 30
0.0
 11
4104.173002626677
 21
3840.808914285714
 31
0.0
  0
LINE
  5
12D
330
1F
100
AcDbEntity
  8
0
  6
Continuous
 62
     7
370
    25
100
AcDbLine
 10
4104.039893982403
 20
3840.808914285714
 30
0.0
 11
4101.344575555088
 21
3840.808914285714
 31
0.0
  0
LINE
  5
12E
330
1F
100
AcDbEntity
  8
0
  6
Continuous
 62
     7
370
    25
100
AcDbLine
 10
4101.211466910792
 20
3840.808914285714
 30
0.0
 11
4098.516148483554
 21
3840.808914285714
 31
0.0
  0
LINE
  5
12F
330
1F
100
AcDbEntity
  8
0
  6
Continuous
 62
     7
370
    25
100
AcDbLine
 10
4098.383039839125
 20
3840.808914285714
 30
0.0
 11
4095.687721411911
 21
3840.808914285714
 31
0.0
  0
LINE
  5
130
330
1F
100
AcDbEntity
  8
0
  6
Continuous
 62
     7
370
    25
100
AcDbLine
 10
4095.55461276777
 20
3840.808914285714
 30
0.0
 11
4092.859294340311
 21
3840.808914285714
 31
0.0
  0
LINE
  5
131
330
1F
100
AcDbEntity
  8
0
  6
Continuous
 62
     7
370
    25
100
AcDbLine
 10
4092.726185696171
 20
3840.808914285714
 30
0.0
 11
4090.030867268711
 21
3840.808914285714
 31
0.0
  0
LINE
  5
132
330
1F
100
AcDbEntity
  8
0
  6
Continuous
 62
     7
370
    25
100
AcDbLine
 10
4089.897758624569
 20
3840.808914285714
 30
0.0
 11
4087.202440197112
 21
3840.808914285714
 31
0.0
  0
LINE
  5
133
330
1F
100
AcDbEntity
  8
0
  6
Continuous
 62
     7
370
    25
100
AcDbLine
 10
4087.069331552969
 20
3840.808914285714
 30
0.0
 11
4069.211486252541
 21
3840.808914285714
 31
0.0
  0
LINE
  5
134
330
1F
100
AcDbEntity
  8
0
  6
Continuous
 62
     7
370
    25
100
AcDbLine
 10
4068.981177765965
 20
3840.808914285714
 30
0.0
 11
4066.383059180997
 21
3840.808914285714
 31
0.0
  0
LINE
  5
135
330
1F
100
AcDbEntity
  8
0
  6
Continuous
 62
     7
370
    25
100
AcDbLine
 10
4066.152750694318
 20
3840.808914285714
 30
0.0
 11
4063.55463210933
 21
3840.808914285714
 31
0.0
  0
LINE
  5
136
330
1F
100
AcDbEntity
  8
0
  6
Continuous
 62
     7
370
    25
100
AcDbLine
 10
4063.324323622779
 20
3840.808914285714
 30
0.0
 11
4060.72620503794
 21
3840.808914285714
 31
0.0
  0
LINE
  5
137
330
1F
100
AcDbEntity
  8
0
  6
Continuous
 62
     7
370
    25
100
AcDbLine
 10
4060.495896551174
 20
3840.808914285714
 30
0.0
 11
4057.897777966312
 21
3840.808914285714
 31
0.0
  0
LINE
  5
138
330
1F
100
AcDbEntity
  8
0
  6
Continuous
 62
     7
370
    25
100
AcDbLine
 10
4057.667469479596
 20
3840.808914285714
 30
0.0
 11
4055.06935089481
 21
3840.808914285714
 31
0.0
  0
LINE
  5
139
330
1F
100
AcDbEntity
  8
0
  6
Continuous
 62
     7
370
    25
100
AcDbLine
 10
4054.839042407875
 20
3840.808914285714
 30
0.0
 11
4052.240923822897
 21
3840.808914285714
 31
0.0
  0
LINE
  5
13A
330
1F
100
AcDbEntity
  8
0
  6
Continuous
 62
     7
370
    25
100
AcDbLine
 10
4052.010615336813
 20
3840.808914285714
 30
0.0
 11
4049.412496751319
 21
3840.808914285714
 31
0.0
  0
LINE
  5
13B
330
1F
100
AcDbEntity
  8
0
  6
Continuous
 62
     7
370
    25
100
AcDbLine
 10
4049.182188265188
 20
3840.808914285714
 30
0.0
 11
4043.113890795622
 21
3840.808914285714
 31
0.0
  0
LINE
  5
13C
330
1F
100
AcDbEntity
  8
0
  6
Continuous
 62
     7
370
    25
100
AcDbLine
 10
3563.113890795622
 20
3840.808914285714
 30
0.0
 11
3557.001429698452
 21
3840.808914285714
 31
0.0
  0
LINE
  5
13D
330
1F
100
AcDbEntity
  8
0
  6
Continuous
 62
     7
370
    25
100
AcDbLine
 10
3556.868321053732
 20
3840.808914285714
 30
0.0
 11
3554.173002626678
 21
3840.808914285714
 31
0.0
  0
LINE
  5
13E
330
1F
100
AcDbEntity
  8
0
  6
Continuous
 62
     7
370
    25
100
AcDbLine
 10
3554.039893982404
 20
3840.808914285714
 30
0.0
 11
3551.344575555088
 21
3840.808914285714
 31
0.0
  0
LINE
  5
13F
330
1F
100
AcDbEntity
  8
0
  6
Continuous
 62
     7
370
    25
100
AcDbLine
 10
3551.211466910792
 20
3840.808914285714
 30
0.0
 11
3548.516148483554
 21
3840.808914285714
 31
0.0
  0
LINE
  5
140
330
1F
100
AcDbEntity
  8
0
  6
Continuous
 62
     7
370
    25
100
AcDbLine
 10
3548.383039839126
 20
3840.808914285714
 30
0.0
 11
3545.687721411911
 21
3840.808914285714
 31
0.0
  0
LINE
  5
141
330
1F
100
AcDbEntity
  8
0
  6
Continuous
 62
     7
370
    25
100
AcDbLine
 10
3545.554612767771
 20
3840.808914285714
 30
0.0
 11
3542.859294340311
 21
3840.808914285714
 31
0.0
  0
LINE
  5
142
330
1F
100
AcDbEntity
  8
0
  6
Continuous
 62
     7
370
    25
100
AcDbLine
 10
3542.726185696171
 20
3840.808914285714
 30
0.0
 11
3540.030867268712
 21
3840.808914285714
 31
0.0
  0
LINE
  5
143
330
1F
100
AcDbEntity
  8
0
  6
Continuous
 62
     7
370
    25
100
AcDbLine
 10
3539.89775862457
 20
3840.808914285714
 30
0.0
 11
3537.202440197113
 21
3840.808914285714
 31
0.0
  0
LINE
  5
144
330
1F
100
AcDbEntity
  8
0
  6
Continuous
 62
     7
370
    25
100
AcDbLine
 10
3537.069331552969
 20
3840.808914285714
 30
0.0
 11
3523.540910206899
 21
3840.808914285714
 31
0.0
  0
LINE
  5
145
330
1F
100
AcDbEntity
  8
0
  6
Continuous
 62
     7
370
    25
100
AcDbLine
 10
3502.739132913493
 20
3840.808914285714
 30
0.0
 11
3502.240923822898
 21
3840.808914285714
 31
0.0
  0
LINE
  5
146
330
1F
100
AcDbEntity
  8
0
  6
Continuous
 62
     7
370
    25
100
AcDbLine
 10
3502.010615336814
 20
3840.808914285714
 30
0.0
 11
3499.412496751319
 21
3840.808914285714
 31
0.0
  0
LINE
  5
147
330
1F
100
AcDbEntity
  8
0
  6
Continuous
 62
     7
370
    25
100
AcDbLine
 10
3499.182188265188
 20
3840.808914285714
 30
0.0
 11
3493.113890795622
 21
3840.808914285714
 31
0.0
  0
LINE
  5
148
330
1F
100
AcDbEntity
  8
0
  6
Continuous
 62
     7
370
    25
100
AcDbLine
 10
3563.113890795622
 20
3794.806034586348
 30
0.0
 11
3563.113890795622
 21
3796.720344059173
 31
0.0
  0
LINE
  5
149
330
1F
100
AcDbEntity
  8
0
  6
Continuous
 62
     7
370
    25
100
AcDbLine
 10
3563.113890795622
 20
3796.85349523897
 30
0.0
 11
3563.113890795622
 21
3814.764334949646
 31
0.0
  0
LINE
  5
14A
330
1F
100
AcDbEntity
  8
0
  6
Continuous
 62
     7
370
    25
100
AcDbLine
 10
3563.113890795622
 20
3814.897485374605
 30
0.0
 11
3563.113890795622
 21
3817.592762021008
 31
0.0
  0
LINE
  5
14B
330
1F
100
AcDbEntity
  8
0
  6
Continuous
 62
     7
370
    25
100
AcDbLine
 10
3563.113890795622
 20
3817.725912446352
 30
0.0
 11
3563.113890795622
 21
3817.857559943011
 31
0.0
  0
LINE
  5
14C
330
1F
100
AcDbEntity
  8
0
  6
Continuous
 62
     7
370
    25
100
AcDbLine
 10
3563.113890795622
 20
3831.100452609276
 30
0.0
 11
3563.113890795622
 21
3831.734897378969
 31
0.0
  0
LINE
  5
14D
330
1F
100
AcDbEntity
  8
0
  6
Continuous
 62
     7
370
    25
100
AcDbLine
 10
3563.113890795622
 20
3831.868047804184
 30
0.0
 11
3563.113890795622
 21
3834.563324370108
 31
0.0
  0
LINE
  5
14E
330
1F
100
AcDbEntity
  8
0
  6
Continuous
 62
     7
370
    25
100
AcDbLine
 10
3563.113890795622
 20
3834.696474956145
 30
0.0
 11
3563.113890795622
 21
3840.808914285714
 31
0.0
  0
LINE
  5
14F
330
1F
100
AcDbEntity
  8
0
  6
Continuous
 62
     7
370
    25
100
AcDbLine
 10
3493.113890795622
 20
3770.808914285713
 30
0.0
 11
3499.182183916349
 21
3770.808914285713
 31
0.0
  0
LINE
  5
150
330
1F
100
AcDbEntity
  8
0
  6
Continuous
 62
     7
370
    25
100
AcDbLine
 10
3499.412501944271
 20
3770.808914285713
 30
0.0
 11
3502.010610987961
 21
3770.808914285713
 31
0.0
  0
LINE
  5
151
330
1F
100
AcDbEntity
  8
0
  6
Continuous
 62
     7
370
    25
100
AcDbLine
 10
3502.240929015858
 20
3770.808914285713
 30
0.0
 11
3504.839038059291
 21
3770.808914285713
 31
0.0
  0
LINE
  5
152
330
1F
100
AcDbEntity
  8
0
  6
Continuous
 62
     7
370
    25
100
AcDbLine
 10
3505.069356087606
 20
3770.808914285713
 30
0.0
 11
3506.113890795622
 21
3770.808914285713
 31
0.0
  0
LINE
  5
153
330
1F
100
AcDbEntity
  8
0
  6
Continuous
 62
     7
370
    25
100
AcDbLine
 10
3493.113890795622
 20
3840.808914285714
 30
0.0
 11
3493.113890795622
 21
3817.869894907588
 31
0.0
  0
LINE
  5
154
330
1F
100
AcDbEntity
  8
0
  6
Continuous
 62
     7
370
    25
100
AcDbLine
 10
3493.113890795622
 20
3780.305239942094
 30
0.0
 11
3493.113890795622
 21
3770.808914285713
 31
0.0
  0
LINE
  5
155
330
1F
100
AcDbEntity
  8
0
  6
Continuous
 62
     7
370
    25
100
AcDbLine
 10
3585.957172321493
 20
3743.808914285713
 30
0.0
 11
3643.23620947268
 21
3743.808914285713
 31
0.0
  0
ARC
  5
156
330
1F
100
AcDbEntity
  8
0
  6
Continuous
 62
     7
370
    25
100
AcDbCircle
 10
3640.568419308871
 20
3743.455839871509
 30
0.0
 40
2.691052935206692
100
AcDbArc
 50
280.3902423863034
 51
7.539118814241336
  0
LINE
  5
157
330
1F
100
AcDbEntity
  8
0
  6
Continuous
 62
     7
370
    25
100
AcDbLine
 10
3641.053755113591
 20
3740.808914285713
 30
0.0
 11
3588.684349718223
 21
3740.808914285713
 31
0.0
  0
ARC
  5
158
330
1F
100
AcDbEntity
  8
0
  6
Continuous
 62
     7
370
    25
100
AcDbCircle
 10
3588.827584207539
 20
3743.67870566515
 30
0.0
 40
2.873363652659207
100
AcDbArc
 50
177.4027094988672
 51
267.1426747968183
  0
LINE
  5
159
330
1F
100
AcDbEntity
  8
0
  6
Continuous
 62
     7
370
    25
100
AcDbLine
 10
3643.23620947268
 20
3752.808914285714
 30
0.0
 11
3585.957172321493
 21
3752.808914285714
 31
0.0
  0
ARC
  5
15A
330
1F
100
AcDbEntity
  8
0
  6
Continuous
 62
     7
370
    25
100
AcDbCircle
 10
3588.827584207538
 20
3752.939122906276
 30
0.0
 40
2.873363652658299
100
AcDbArc
 50
92.85732520316532
 51
182.5972905011344
  0
ARC
  5
15B
330
1F
100
AcDbEntity
  8
0
  6
Continuous
 62
     7
370
    25
100
AcDbCircle
 10
3640.568419308878
 20
3753.161988699925
 30
0.0
 40
2.691052935199933
100
AcDbArc
 50
352.4608811855952
 51
79.60975761374907
  0
LINE
  5
15C
330
1F
100
AcDbEntity
  8
0
  6
Continuous
 62
     7
370
    25
100
AcDbLine
 10
4021.269988587394
 20
3752.808914285714
 30
0.0
 11
3963.990951456074
 21
3752.808914285714
 31
0.0
  0
ARC
  5
15D
330
1F
100
AcDbEntity
  8
0
  6
Continuous
 62
     7
370
    25
100
AcDbCircle
 10
3966.658741621559
 20
3753.161988698599
 30
0.0
 40
2.691052936694483
100
AcDbArc
 50
100.3902424033329
 51
187.5391187817255
  0
ARC
  5
15E
330
1F
100
AcDbEntity
  8
0
  6
Continuous
 62
     7
370
    25
100
AcDbCircle
 10
4018.399576702744
 20
3752.939122907577
 30
0.0
 40
2.873363651322646
100
AcDbArc
 50
357.4027094716984
 51
87.14267481060428
  0
LINE
  5
15F
330
1F
100
AcDbEntity
  8
0
  6
Continuous
 62
     7
370
    25
100
AcDbLine
 10
3963.990951456074
 20
3743.808914285714
 30
0.0
 11
4021.269988587394
 21
3743.808914285714
 31
0.0
  0
ARC
  5
160
330
1F
100
AcDbEntity
  8
0
  6
Continuous
 62
     7
370
    25
100
AcDbCircle
 10
4018.399576699838
 20
3743.678705666567
 30
0.0
 40
2.873363654102792
100
AcDbArc
 50
272.8573252139943
 51
2.597290471560827
  0
LINE
  5
161
330
1F
100
AcDbEntity
  8
0
  6
Continuous
 62
     7
370
    25
100
AcDbLine
 10
4018.542811189766
 20
3740.808914285714
 30
0.0
 11
3966.173405814096
 21
3740.808914285714
 31
0.0
  0
ARC
  5
162
330
1F
100
AcDbEntity
  8
0
  6
Continuous
 62
     7
370
    25
100
AcDbCircle
 10
3966.658741618073
 20
3743.45583987002
 30
0.0
 40
2.691052933606953
100
AcDbArc
 50
172.4608811492666
 51
259.6097576235448
  0
LINE
  5
163
330
1F
100
AcDbEntity
  8
0
  6
Continuous
 62
     7
370
    25
100
AcDbLine
 10
3963.990951456074
 20
3743.808914285714
 30
0.0
 11
3963.990951456074
 21
3752.808914285714
 31
0.0
  0
LINE
  5
164
330
1F
100
AcDbEntity
  8
0
  6
Continuous
 62
     7
370
    25
100
AcDbLine
 10
4021.269988587394
 20
3743.808914285714
 30
0.0
 11
4021.269988587394
 21
3752.808914285714
 31
0.0
  0
LINE
  5
165
330
1F
100
AcDbEntity
  8
0
  6
Continuous
 62
     7
370
    25
100
AcDbLine
 10
3585.957172321493
 20
3743.808914285713
 30
0.0
 11
3585.957172321493
 21
3752.808914285714
 31
0.0
  0
LINE
  5
166
330
1F
100
AcDbEntity
  8
0
  6
Continuous
 62
     7
370
    25
100
AcDbLine
 10
3643.23620947268
 20
3743.808914285713
 30
0.0
 11
3643.23620947268
 21
3752.808914285714
 31
0.0
  0
LINE
  5
167
330
1F
100
AcDbEntity
  8
0
  6
Continuous
 62
     7
370
    25
100
AcDbLine
 10
3963.990951456074
 20
3752.808914285714
 30
0.0
 11
3920.341864261876
 21
3752.808914285714
 31
0.0
  0
LINE
  5
168
330
1F
100
AcDbEntity
  8
0
  6
Continuous
 62
     7
370
    25
100
AcDbLine
 10
3920.341864261876
 20
3752.808914285714
 30
0.0
 11
3920.341864261876
 21
3755.808914285714
 31
0.0
  0
LINE
  5
169
330
1F
100
AcDbEntity
  8
0
  6
Continuous
 62
     7
370
    25
100
AcDbLine
 10
3920.341864261876
 20
3743.808914285714
 30
0.0
 11
3963.990951456074
 21
3743.808914285714
 31
0.0
  0
LINE
  5
16A
330
1F
100
AcDbEntity
  8
0
  6
Continuous
 62
     7
370
    25
100
AcDbLine
 10
3920.341864261876
 20
3743.808914285714
 30
0.0
 11
3920.341864261876
 21
3740.808914285714
 31
0.0
  0
LINE
  5
16B
330
1F
100
AcDbEntity
  8
0
  6
Continuous
 62
     7
370
    25
100
AcDbLine
 10
3966.173405814096
 20
3740.808914285714
 30
0.0
 11
3920.341864261876
 21
3740.808914285714
 31
0.0
  0
LINE
  5
16C
330
1F
100
AcDbEntity
  8
0
  6
Continuous
 62
     7
370
    25
100
AcDbLine
 10
3920.341864261876
 20
3743.808914285714
 30
0.0
 11
3920.341864261876
 21
3752.808914285714
 31
0.0
  0
LINE
  5
16D
330
1F
100
AcDbEntity
  8
0
  6
Continuous
 62
     7
370
    25
100
AcDbLine
 10
3643.23620947268
 20
3743.808914285713
 30
0.0
 11
3686.885296654474
 21
3743.808914285713
 31
0.0
  0
LINE
  5
16E
330
1F
100
AcDbEntity
  8
0
  6
Continuous
 62
     7
370
    25
100
AcDbLine
 10
3686.885296654474
 20
3743.808914285713
 30
0.0
 11
3686.885296654474
 21
3740.808914285713
 31
0.0
  0
LINE
  5
16F
330
1F
100
AcDbEntity
  8
0
  6
Continuous
 62
     7
370
    25
100
AcDbLine
 10
3686.885296654474
 20
3740.808914285713
 30
0.0
 11
3641.053755113591
 21
3740.808914285713
 31
0.0
  0
LINE
  5
170
330
1F
100
AcDbEntity
  8
0
  6
Continuous
 62
     7
370
    25
100
AcDbLine
 10
3686.885296654474
 20
3752.808914285714
 30
0.0
 11
3643.23620947268
 21
3752.808914285714
 31
0.0
  0
LINE
  5
171
330
1F
100
AcDbEntity
  8
0
  6
Continuous
 62
     7
370
    25
100
AcDbLine
 10
3686.885296654474
 20
3743.808914285713
 30
0.0
 11
3686.885296654474
 21
3752.808914285714
 31
0.0
  0
LINE
  5
172
330
1F
100
AcDbEntity
  8
0
  6
Continuous
 62
     7
370
    25
100
AcDbLine
 10
3686.885296654474
 20
3752.808914285714
 30
0.0
 11
3686.885296654474
 21
3755.808914285714
 31
0.0
  0
LINE
  5
173
330
1F
100
AcDbEntity
  8
0
  6
Continuous
 62
     7
370
    25
100
AcDbLine
 10
4036.7246996879
 20
3752.808914285714
 30
0.0
 11
4021.269988587394
 21
3752.808914285714
 31
0.0
  0
LWPOLYLINE
  5
174
330
1F
100
AcDbEntity
  8
0
  6
Continuous
 62
     7
370
    25
100
AcDbPolyline
 90
        9
 70
   128
 43
0.0
 10
4036.7246996879
 20
3752.808914285714
 10
4036.707932691481
 20
3753.394185251762
 10
4036.658276049075
 20
3753.95696458281
 10
4036.577638037602
 20
3754.475624984773
 10
4036.469117530621
 20
3754.930234629274
 10
4036.336884910357
 20
3755.303323122622
 10
4036.18602180225
 20
3755.580552883248
 10
4036.022325790939
 20
3755.751270126925
 10
4035.852087622335
 20
3755.808914285714
  0
LINE
  5
175
330
1F
100
AcDbEntity
  8
0
  6
Continuous
 62
     7
370
    25
100
AcDbLine
 10
4021.269988587394
 20
3743.808914285714
 30
0.0
 11
4036.7246996879
 21
3743.808914285714
 31
0.0
  0
LWPOLYLINE
  5
176
330
1F
100
AcDbEntity
  8
0
  6
Continuous
 62
     7
370
    25
100
AcDbPolyline
 90
        9
 70
   128
 43
0.0
 10
4036.7246996879
 20
3743.808914285714
 10
4036.707932692036
 20
3743.223643319665
 10
4036.658276050107
 20
3742.660863988618
 10
4036.577638039013
 20
3742.142203586654
 10
4036.4691175323
 20
3741.687593942154
 10
4036.336884912182
 20
3741.314505448805
 10
4036.186021804092
 20
3741.037275688179
 10
4036.02232579267
 20
3740.866558444503
 10
4035.852087623832
 20
3740.808914285714
  0
LINE
  5
177
330
1F
100
AcDbEntity
  8
0
  6
Continuous
 62
     7
370
    25
100
AcDbLine
 10
4035.852087623832
 20
3740.808914285714
 30
0.0
 11
4018.542811189766
 21
3740.808914285714
 31
0.0
  0
LINE
  5
178
330
1F
100
AcDbEntity
  8
0
  6
Continuous
 62
     7
370
    25
100
AcDbLine
 10
4036.7246996879
 20
3743.808914285714
 30
0.0
 11
4036.7246996879
 21
3752.808914285714
 31
0.0
  0
LINE
  5
179
330
1F
100
AcDbEntity
  8
0
  6
Continuous
 62
     7
370
    25
100
AcDbLine
 10
3585.957172321493
 20
3752.808914285714
 30
0.0
 11
3570.502461064824
 21
3752.808914285714
 31
0.0
  0
LWPOLYLINE
  5
17A
330
1F
100
AcDbEntity
  8
0
  6
Continuous
 62
     7
370
    25
100
AcDbPolyline
 90
        9
 70
   128
 43
0.0
 10
3570.502461064824
 20
3752.808914285714
 10
3570.519228067972
 20
3753.394185251761
 10
3570.568884716151
 20
3753.956964582808
 10
3570.64952273222
 20
3754.475624984772
 10
3570.758043242442
 20
3754.930234629273
 10
3570.890275864468
 20
3755.303323122621
 10
3571.041138972792
 20
3755.580552883247
 10
3571.204834982767
 20
3755.751270126923
 10
3571.375073148527
 20
3755.808914285713
  0
LINE
  5
17B
330
1F
100
AcDbEntity
  8
0
  6
Continuous
 62
     7
370
    25
100
AcDbLine
 10
3570.502461064824
 20
3743.808914285713
 30
0.0
 11
3585.957172321493
 21
3743.808914285713
 31
0.0
  0
LWPOLYLINE
  5
17C
330
1F
100
AcDbEntity
  8
0
  6
Continuous
 62
     7
370
    25
100
AcDbPolyline
 90
        9
 70
   128
 43
0.0
 10
3570.502461064824
 20
3743.808914285713
 10
3570.51922805396
 20
3743.223643319665
 10
3570.568884690116
 20
3742.660863988618
 10
3570.649522696613
 20
3742.142203586654
 10
3570.758043200085
 20
3741.687593942153
 10
3570.890275818441
 20
3741.314505448805
 10
3571.041138926315
 20
3741.037275688179
 10
3571.204834939075
 20
3740.866558444503
 10
3571.375073110754
 20
3740.808914285713
  0
LINE
  5
17D
330
1F
100
AcDbEntity
  8
0
  6
Continuous
 62
     7
370
    25
100
AcDbLine
 10
3588.684349718223
 20
3740.808914285713
 30
0.0
 11
3571.375073110754
 21
3740.808914285713
 31
0.0
  0
LINE
  5
17E
330
1F
100
AcDbEntity
  8
0
  6
Continuous
 62
     7
370
    25
100
AcDbLine
 10
3570.502461064824
 20
3743.808914285713
 30
0.0
 11
3570.502461064824
 21
3752.808914285714
 31
0.0
  0
LINE
  5
17F
330
1F
100
AcDbEntity
  8
0
  6
Continuous
 62
     7
370
    25
100
AcDbLine
 10
3686.885296654474
 20
3743.808914285713
 30
0.0
 11
3920.341864261876
 21
3743.808914285714
 31
0.0
  0
LINE
  5
180
330
1F
100
AcDbEntity
  8
0
  6
Continuous
 62
     7
370
    25
100
AcDbLine
 10
3920.341864261876
 20
3752.808914285714
 30
0.0
 11
3686.885296654474
 21
3752.808914285714
 31
0.0
  0
LINE
  5
181
330
1F
100
AcDbEntity
  8
0
  6
Continuous
 62
     7
370
    25
100
AcDbLine
 10
3920.341864261876
 20
3740.808914285714
 30
0.0
 11
3686.885296654474
 21
3740.808914285713
 31
0.0
  0
LINE
  5
182
330
1F
100
AcDbEntity
  8
0
  6
Continuous
 62
     7
370
    25
100
AcDbLine
 10
4054.45293248733
 20
3752.808914285714
 30
0.0
 11
4036.7246996879
 21
3752.808914285714
 31
0.0
  0
ARC
  5
183
330
1F
100
AcDbEntity
  8
0
  6
Continuous
 62
     7
370
    25
100
AcDbCircle
 10
4051.45293248733
 20
3752.808914285714
 30
0.0
 40
3.000000000000454
100
AcDbArc
 50
0.0
 51
90.0
  0
LINE
  5
184
330
1F
100
AcDbEntity
  8
0
  6
Continuous
 62
     7
370
    25
100
AcDbLine
 10
4036.7246996879
 20
3743.808914285714
 30
0.0
 11
4054.45293248733
 21
3743.808914285714
 31
0.0
  0
ARC
  5
185
330
1F
100
AcDbEntity
  8
0
  6
Continuous
 62
     7
370
    25
100
AcDbCircle
 10
4051.45293248733
 20
3743.808914285714
 30
0.0
 40
3.0
100
AcDbArc
 50
270.0000000000008
 51
0.0
  0
LINE
  5
186
330
1F
100
AcDbEntity
  8
0
  6
Continuous
 62
     7
370
    25
100
AcDbLine
 10
4051.45293248733
 20
3740.808914285714
 30
0.0
 11
4035.852087623832
 21
3740.808914285714
 31
0.0
  0
LINE
  5
187
330
1F
100
AcDbEntity
  8
0
  6
Continuous
 62
     7
370
    25
100
AcDbLine
 10
4054.45293248733
 20
3743.808914285714
 30
0.0
 11
4054.45293248733
 21
3752.808914285714
 31
0.0
  0
LINE
  5
188
330
1F
100
AcDbEntity
  8
0
  6
Continuous
 62
     7
370
    25
100
AcDbLine
 10
3570.502461064824
 20
3752.808914285714
 30
0.0
 11
3552.774228429021
 21
3752.808914285714
 31
0.0
  0
ARC
  5
189
330
1F
100
AcDbEntity
  8
0
  6
Continuous
 62
     7
370
    25
100
AcDbCircle
 10
3555.774228429021
 20
3752.808914285714
 30
0.0
 40
3.000000000000454
100
AcDbArc
 50
90.0
 51
180.0
  0
LINE
  5
18A
330
1F
100
AcDbEntity
  8
0
  6
Continuous
 62
     7
370
    25
100
AcDbLine
 10
3552.774228429021
 20
3743.808914285713
 30
0.0
 11
3570.502461064824
 21
3743.808914285713
 31
0.0
  0
LINE
  5
18B
330
1F
100
AcDbEntity
  8
0
  6
Continuous
 62
     7
370
    25
100
AcDbLine
 10
3552.774228429021
 20
3743.808914285713
 30
0.0
 11
3552.774228429021
 21
3752.808914285714
 31
0.0
  0
ARC
  5
18C
330
1F
100
AcDbEntity
  8
0
  6
Continuous
 62
     7
370
    25
100
AcDbCircle
 10
3555.774228429021
 20
3743.808914285713
 30
0.0
 40
3.000000000000454
100
AcDbArc
 50
180.0
 51
270.0000000000008
  0
LINE
  5
18D
330
1F
100
AcDbEntity
  8
0
  6
Continuous
 62
     7
370
    25
100
AcDbLine
 10
3571.375073110754
 20
3740.808914285713
 30
0.0
 11
3555.774228429021
 21
3740.808914285713
 31
0.0
  0
LINE
  5
18E
330
1F
100
AcDbEntity
  8
0
  6
Continuous
 62
     7
370
    25
100
AcDbLine
 10
3796.410585779962
 20
3775.578914285712
 30
0.0
 11
3796.410585779962
 21
3770.808914285712
 31
0.0
  0
LINE
  5
18F
330
1F
100
AcDbEntity
  8
0
  6
Continuous
 62
     7
370
    25
100
AcDbLine
 10
3796.410864655484
 20
3775.578914285712
 30
0.0
 11
3798.5501039617
 21
3775.578914285711
 31
0.0
  0
SPLINE
  5
190
330
1F
100
AcDbEntity
  8
0
  6
Continuous
 62
     7
370
    25
100
AcDbSpline
210
0.0
220
0.0
230
1.0
 70
    24
 71
     3
 72
     9
 73
     5
 74
     0
 42
0.00000001
 43
0.0000000001
 40
0.0
 40
0.0
 40
0.0
 40
0.0
 40
0.4999999999999833
 40
1.0
 40
1.0
 40
1.0
 40
1.0
 10
3798.5501039617
 20
3775.578914285711
 30
0.0
 10
3799.352875355243
 20
3775.578914285711
 30
0.0
 10
3800.958418142329
 20
3775.578914285711
 30
0.0
 10
3802.728576743075
 20
3775.578914285711
 30
0.0
 10
3803.613656043448
 20
3775.578914285711
 30
0.0
  0
SPLINE
  5
191
330
1F
100
AcDbEntity
  8
0
  6
Continuous
 62
     7
370
    25
100
AcDbSpline
210
0.0
220
0.0
230
1.0
 70
    24
 71
     3
 72
     9
 73
     5
 74
     0
 42
0.00000001
 43
0.0000000001
 40
0.0
 40
0.0
 40
0.0
 40
0.0
 40
0.4999999999999962
 40
1.0
 40
1.0
 40
1.0
 40
1.0
 10
3803.613656043448
 20
3775.578914285711
 30
0.0
 10
3804.498735343821
 20
3775.578914285711
 30
0.0
 10
3806.268893944567
 20
3775.578914285711
 30
0.0
 10
3807.874436731653
 20
3775.578914285711
 30
0.0
 10
3808.677208125196
 20
3775.578914285711
 30
0.0
  0
LINE
  5
192
330
1F
100
AcDbEntity
  8
0
  6
Continuous
 62
     7
370
    25
100
AcDbLine
 10
3810.817531800218
 20
3775.578914285712
 30
0.0
 11
3808.677208163537
 21
3775.578914285711
 31
0.0
  0
LINE
  5
193
330
1F
100
AcDbEntity
  8
0
  6
Continuous
 62
     7
370
    25
100
AcDbLine
 10
3810.816726306934
 20
3775.578914285712
 30
0.0
 11
3810.816726306934
 21
3770.808914285712
 31
0.0
  0
SPLINE
  5
194
330
1F
100
AcDbEntity
  8
0
  6
Continuous
 62
     7
370
    25
100
AcDbSpline
210
0.0
220
0.0
230
1.0
 70
     8
 71
     3
 72
    17
 73
    13
 74
     0
 42
0.00000001
 43
0.0000000001
 40
0.0
 40
0.0
 40
0.0
 40
0.0
 40
0.1249078099977744
 40
0.2500010586774561
 40
0.3749594299785869
 40
0.4378148567262003
 40
0.5005386108003016
 40
0.5631656794732529
 40
0.625837326123957
 40
0.7507197472891524
 40
0.8751986430798492
 40
1.0
 40
1.0
 40
1.0
 40
1.0
 10
3810.480397006051
 20
3781.861001454589
 30
0.0
 10
3810.227276545419
 20
3782.729251683925
 30
0.0
 10
3809.72065984041
 20
3784.467041150693
 30
0.0
 10
3808.302898283561
 20
3786.776956523656
 30
0.0
 10
3806.652196462295
 20
3788.35507203112
 30
0.0
 10
3804.995192397748
 20
3789.152375608053
 30
0.0
 10
3803.601985708423
 20
3789.385801430711
 30
0.0
 10
3802.211891862666
 20
3789.145234177194
 30
0.0
 10
3800.560526447601
 20
3788.343788676932
 30
0.0
 10
3798.917710158934
 20
3786.76717482926
 30
0.0
 10
3797.504809165975
 20
3784.461350205208
 30
0.0
 10
3796.999764212669
 20
3782.728531544785
 30
0.0
 10
3796.746915080847
 20
3781.861001454592
 30
0.0
  0
SPLINE
  5
195
330
1F
100
AcDbEntity
  8
0
  6
Continuous
 62
     7
370
    25
100
AcDbSpline
210
0.0
220
0.0
230
1.0
 70
     8
 71
     3
 72
     9
 73
     5
 74
     0
 42
0.00000001
 43
0.0000000001
 40
0.0
 40
0.0
 40
0.0
 40
0.0
 40
0.4999949075899778
 40
1.0
 40
1.0
 40
1.0
 40
1.0
 10
3810.816044263226
 20
3775.578930710369
 30
0.0
 10
3810.811944405575
 20
3776.644845242248
 30
0.0
 10
3810.803744606758
 20
3778.776696018522
 30
0.0
 10
3810.588180271447
 20
3780.832892661902
 30
0.0
 10
3810.48039700605
 20
3781.861001454589
 30
0.0
  0
SPLINE
  5
196
330
1F
100
AcDbEntity
  8
0
  6
Continuous
 62
     7
370
    25
100
AcDbSpline
210
0.0
220
0.0
230
1.0
 70
     8
 71
     3
 72
     9
 73
     5
 74
     0
 42
0.00000001
 43
0.0000000001
 40
0.0
 40
0.0
 40
0.0
 40
0.0
 40
0.4999949075900333
 40
1.0
 40
1.0
 40
1.0
 40
1.0
 10
3796.41126782367
 20
3775.578930710315
 30
0.0
 10
3796.415367681321
 20
3776.644845242203
 30
0.0
 10
3796.423567480136
 20
3778.776696018498
 30
0.0
 10
3796.639131815449
 20
3780.832892661897
 30
0.0
 10
3796.746915080847
 20
3781.861001454592
 30
0.0
  0
SPLINE
  5
197
330
1F
100
AcDbEntity
  8
0
  6
Continuous
 62
     7
370
    25
100
AcDbSpline
210
0.0
220
0.0
230
1.0
 70
     8
 71
     3
 72
    13
 73
     9
 74
     0
 42
0.00000001
 43
0.0000000001
 40
0.0
 40
0.0
 40
0.0
 40
0.0
 40
0.0013863088669612
 40
0.1266016900049165
 40
0.2519061995117042
 40
0.5015937594594943
 40
0.7504745183764071
 40
1.0
 40
1.0
 40
1.0
 40
1.0
 10
3817.985160952588
 20
3789.304458797191
 30
0.0
 10
3817.984827073701
 20
3789.305259805298
 30
0.0
 10
3817.954336298944
 20
3789.378410156136
 30
0.0
 10
3818.066863916914
 20
3789.112917866435
 30
0.0
 10
3818.368070648475
 20
3788.362373797688
 30
0.0
 10
3818.9393660112
 20
3786.760921415714
 30
0.0
 10
3819.617056819809
 20
3784.462916169668
 30
0.0
 10
3819.999810703567
 20
3782.729053982897
 30
0.0
 10
3820.191435204666
 20
3781.861001454595
 30
0.0
  0
SPLINE
  5
198
330
1F
100
AcDbEntity
  8
0
  6
Continuous
 62
     7
370
    25
100
AcDbSpline
210
0.0
220
0.0
230
1.0
 70
     8
 71
     3
 72
    17
 73
    13
 74
     0
 42
0.00000001
 43
0.0000000001
 40
0.0
 40
0.0
 40
0.0
 40
0.0
 40
0.1249078099977174
 40
0.250001058677396
 40
0.3749594299785012
 40
0.4378148567261292
 40
0.5005386108002296
 40
0.5631656794731864
 40
0.6258373261238841
 40
0.7507197472890562
 40
0.8751986430798039
 40
0.9999999999999998
 40
0.9999999999999998
 40
0.9999999999999998
 40
0.9999999999999998
 10
3820.191435204666
 20
3781.861001454595
 30
0.0
 10
3819.876984361089
 20
3782.72925168393
 30
0.0
 10
3819.247615838833
 20
3784.467041150695
 30
0.0
 10
3817.762360719455
 20
3786.776956523666
 30
0.0
 10
3816.197638456494
 20
3788.355072031128
 30
0.0
 10
3814.798874306127
 20
3789.152375608053
 30
0.0
 10
3813.742960316879
 20
3789.385801430713
 30
0.0
 10
3812.832897696412
 20
3789.145234177192
 30
0.0
 10
3811.893190522058
 20
3788.343788676934
 30
0.0
 10
3811.128191608167
 20
3786.767174829264
 30
0.0
 10
3810.610623646817
 20
3784.461350205203
 30
0.0
 10
3810.523843305083
 20
3782.72853154478
 30
0.0
 10
3810.48039700605
 20
3781.861001454589
 30
0.0
  0
SPLINE
  5
199
330
1F
100
AcDbEntity
  8
0
  6
Continuous
 62
     7
370
    25
100
AcDbSpline
210
0.0
220
0.0
230
1.0
 70
     8
 71
     3
 72
    17
 73
    13
 74
     0
 42
0.00000001
 43
0.0000000001
 40
0.0
 40
0.0
 40
0.0
 40
0.0
 40
0.1249078099977281
 40
0.250001058677406
 40
0.3749594299785121
 40
0.437814856726141
 40
0.5005386108002452
 40
0.5631656794731935
 40
0.6258373261239074
 40
0.7507197472890815
 40
0.8751986430798213
 40
0.9999999999999998
 40
0.9999999999999998
 40
0.9999999999999998
 40
0.9999999999999998
 10
3796.746915080848
 20
3781.861001454592
 30
0.0
 10
3796.70339953608
 20
3782.729251683929
 30
0.0
 10
3796.616303843176
 20
3784.467041150695
 30
0.0
 10
3796.096541340675
 20
3786.776956523669
 30
0.0
 10
3795.326818700553
 20
3788.355072031129
 30
0.0
 10
3794.382225229924
 20
3789.152375608054
 30
0.0
 10
3793.467847423939
 20
3789.385801430713
 30
0.0
 10
3792.412020474765
 20
3789.14523417719
 30
0.0
 10
3791.016344282695
 20
3788.343788676931
 30
0.0
 10
3789.458050120657
 20
3786.767174829259
 30
0.0
 10
3787.977474335497
 20
3784.461350205198
 30
0.0
 10
3787.350013254652
 20
3782.728531544773
 30
0.0
 10
3787.035876882227
 20
3781.86100145458
 30
0.0
  0
SPLINE
  5
19A
330
1F
100
AcDbEntity
  8
0
  6
Continuous
 62
     7
370
    25
100
AcDbSpline
210
0.0
220
0.0
230
1.0
 70
     8
 71
     3
 72
    12
 73
     8
 74
     0
 42
0.00000001
 43
0.0000000001
 40
0.0
 40
0.0
 40
0.0
 40
0.0
 40
0.2499361792670768
 40
0.5002434148807767
 40
0.7502807655556198
 40
0.8760522862297936
 40
1.0
 40
1.0
 40
1.0
 40
1.0
 10
3787.035876882227
 20
3781.861001454579
 30
0.0
 10
3787.22731002454
 20
3782.728907962152
 30
0.0
 10
3787.61046051165
 20
3784.466009475101
 30
0.0
 10
3788.295375914407
 20
3786.781088517188
 30
0.0
 10
3788.850526501754
 20
3788.34284355259
 30
0.0
 10
3789.184976193684
 20
3789.171097126399
 30
0.0
 10
3789.22310327778
 20
3789.260023778741
 30
0.0
 10
3789.242027590586
 20
3789.304162370132
 30
0.0
  0
LINE
  5
19B
330
1F
100
AcDbEntity
  8
0
  6
Continuous
 62
     7
370
    25
100
AcDbLine
 10
3803.613656043448
 20
3789.80685436559
 30
0.0
 11
3789.613327547868
 21
3789.806854365591
 31
0.0
  0
LINE
  5
19C
330
1F
100
AcDbEntity
  8
0
  6
Continuous
 62
     7
370
    25
100
AcDbLine
 10
3817.613984539027
 20
3789.806854365591
 30
0.0
 11
3803.613656043448
 21
3789.80685436559
 31
0.0
  0
LINE
  5
19D
330
1F
100
AcDbEntity
  8
0
  6
Continuous
 62
     7
370
    25
100
AcDbLine
 10
3796.411692420234
 20
3775.578914285712
 30
0.0
 11
3793.795590661981
 21
3775.578914285712
 31
0.0
  0
SPLINE
  5
19E
330
1F
100
AcDbEntity
  8
0
  6
Continuous
 62
     7
370
    25
100
AcDbSpline
210
0.0
220
0.0
230
1.0
 70
    24
 71
     3
 72
     9
 73
     5
 74
     0
 42
0.00000001
 43
0.0000000001
 40
0.0
 40
0.0
 40
0.0
 40
0.0
 40
0.5000000000000001
 40
1.0
 40
1.0
 40
1.0
 40
1.0
 10
3789.294743721014
 20
3775.578914285712
 30
0.0
 10
3789.960778421509
 20
3775.578914285712
 30
0.0
 10
3791.2928478225
 20
3775.578914285712
 30
0.0
 10
3792.961343020797
 20
3775.578914285712
 30
0.0
 10
3793.795590619945
 20
3775.578914285712
 30
0.0
  0
SPLINE
  5
19F
330
1F
100
AcDbEntity
  8
0
  6
Continuous
 62
     7
370
    25
100
AcDbSpline
210
0.0
220
0.0
230
1.0
 70
    24
 71
     3
 72
     9
 73
     5
 74
     0
 42
0.00000001
 43
0.0000000001
 40
0.0
 40
0.0
 40
0.0
 40
0.0
 40
0.4999999999999742
 40
1.0
 40
1.0
 40
1.0
 40
1.0
 10
3786.634646592153
 20
3775.578914285712
 30
0.0
 10
3786.935689185239
 20
3775.578914285712
 30
0.0
 10
3787.537774371409
 20
3775.578914285712
 30
0.0
 10
3788.709087271146
 20
3775.578914285712
 30
0.0
 10
3789.294743721014
 20
3775.578914285712
 30
0.0
  0
LINE
  5
1A0
330
1F
100
AcDbEntity
  8
0
  6
Continuous
 62
     7
370
    25
100
AcDbLine
 10
3786.22391740073
 20
3775.578914285713
 30
0.0
 11
3786.634646592153
 21
3775.578914285712
 31
0.0
  0
SPLINE
  5
1A1
330
1F
100
AcDbEntity
  8
0
  6
Continuous
 62
     7
370
    25
100
AcDbSpline
210
0.0
220
0.0
230
1.0
 70
     8
 71
     3
 72
     9
 73
     5
 74
     0
 42
0.00000001
 43
0.0000000001
 40
0.0
 40
0.0
 40
0.0
 40
0.0
 40
0.4999949075899934
 40
1.0
 40
1.0
 40
1.0
 40
1.0
 10
3786.225552721782
 20
3775.57893071037
 30
0.0
 10
3786.235450653723
 20
3776.644845242247
 30
0.0
 10
3786.255246719224
 20
3778.776696018518
 30
0.0
 10
3786.775665061103
 20
3780.832892661895
 30
0.0
 10
3787.035876882227
 20
3781.861001454579
 30
0.0
  0
SPLINE
  5
1A2
330
1F
100
AcDbEntity
  8
0
  6
Continuous
 62
     7
370
    25
100
AcDbSpline
210
0.0
220
0.0
230
1.0
 70
     8
 71
     3
 72
     9
 73
     5
 74
     0
 42
0.00000001
 43
0.0000000001
 40
0.0
 40
0.0
 40
0.0
 40
0.0
 40
0.4999949075939539
 40
1.0
 40
1.0
 40
1.0
 40
1.0
 10
3821.001759365017
 20
3775.578930706847
 30
0.0
 10
3820.991861433228
 20
3776.64484523933
 30
0.0
 10
3820.97206536803
 20
3778.776696016795
 30
0.0
 10
3820.451647025908
 20
3780.832892661337
 30
0.0
 10
3820.191435204665
 20
3781.861001454595
 30
0.0
  0
LINE
  5
1A3
330
1F
100
AcDbEntity
  8
0
  6
Continuous
 62
     7
370
    25
100
AcDbLine
 10
3821.003442765019
 20
3775.578914285713
 30
0.0
 11
3820.592665506934
 21
3775.578914285712
 31
0.0
  0
SPLINE
  5
1A4
330
1F
100
AcDbEntity
  8
0
  6
Continuous
 62
     7
370
    25
100
AcDbSpline
210
0.0
220
0.0
230
1.0
 70
    24
 71
     3
 72
     9
 73
     5
 74
     0
 42
0.00000001
 43
0.0000000001
 40
0.0
 40
0.0
 40
0.0
 40
0.0
 40
0.5000000000000041
 40
1.0
 40
1.0
 40
1.0
 40
1.0
 10
3817.932568365882
 20
3775.578914285712
 30
0.0
 10
3818.51822481575
 20
3775.578914285712
 30
0.0
 10
3819.689537715486
 20
3775.578914285712
 30
0.0
 10
3820.291622901656
 20
3775.578914285712
 30
0.0
 10
3820.592665494742
 20
3775.578914285712
 30
0.0
  0
SPLINE
  5
1A5
330
1F
100
AcDbEntity
  8
0
  6
Continuous
 62
     7
370
    25
100
AcDbSpline
210
0.0
220
0.0
230
1.0
 70
    24
 71
     3
 72
     9
 73
     5
 74
     0
 42
0.00000001
 43
0.0000000001
 40
0.0
 40
0.0
 40
0.0
 40
0.0
 40
0.4999999999999822
 40
1.0
 40
1.0
 40
1.0
 40
1.0
 10
3813.431721466951
 20
3775.578914285712
 30
0.0
 10
3814.265969066099
 20
3775.578914285712
 30
0.0
 10
3815.934464264396
 20
3775.578914285712
 30
0.0
 10
3817.266533665387
 20
3775.578914285712
 30
0.0
 10
3817.932568365882
 20
3775.578914285712
 30
0.0
  0
LINE
  5
1A6
330
1F
100
AcDbEntity
  8
0
  6
Continuous
 62
     7
370
    25
100
AcDbLine
 10
3810.817109414294
 20
3775.578914285712
 30
0.0
 11
3813.431721466951
 21
3775.578914285712
 31
0.0
  0
LINE
  5
1A7
330
1F
100
AcDbEntity
  8
0
  6
Continuous
 62
     7
370
    25
100
AcDbLine
 10
3786.223906122613
 20
3775.578914285713
 30
0.0
 11
3786.223906122613
 21
3770.808914285713
 31
0.0
  0
LINE
  5
1A8
330
1F
100
AcDbEntity
  8
0
  6
Continuous
 62
     7
370
    25
100
AcDbLine
 10
3821.003405964282
 20
3775.578914285713
 30
0.0
 11
3821.003405964282
 21
3770.808914285713
 31
0.0
  0
LINE
  5
1A9
330
1F
100
AcDbEntity
  8
0
  6
Continuous
 62
     7
370
    25
100
AcDbLine
 10
3786.224665655011
 20
3775.578914285713
 30
0.0
 11
3784.665262704621
 21
3775.578914285713
 31
0.0
  0
SPLINE
  5
1AA
330
1F
100
AcDbEntity
  8
0
  6
Continuous
 62
     7
370
    25
100
AcDbSpline
210
0.0
220
0.0
230
1.0
 70
    24
 71
     3
 72
     9
 73
     5
 74
     0
 42
0.00000001
 43
0.0000000001
 40
0.0
 40
0.0
 40
0.0
 40
0.0
 40
0.5000000000000804
 40
1.0
 40
1.0
 40
1.0
 40
1.0
 10
3783.363656038631
 20
3775.578914285713
 30
0.0
 10
3783.420492044708
 20
3775.578914285713
 30
0.0
 10
3783.534164056866
 20
3775.578914285713
 30
0.0
 10
3784.288229807965
 20
3775.578914285713
 30
0.0
 10
3784.665262683515
 20
3775.578914285713
 30
0.0
  0
SPLINE
  5
1AB
330
1F
100
AcDbEntity
  8
0
  6
Continuous
 62
     7
370
    25
100
AcDbSpline
210
0.0
220
0.0
230
1.0
 70
    24
 71
     3
 72
    11
 73
     7
 74
     0
 42
0.00000001
 43
0.0000000001
 40
0.0
 40
0.0
 40
0.0
 40
0.0
 40
0.2499287735814581
 40
0.4999525157209763
 40
0.7499762578604946
 40
1.0
 40
1.0
 40
1.0
 40
1.0
 10
3823.863585076446
 20
3775.578914285713
 30
0.0
 10
3823.827723461935
 20
3775.578914285713
 30
0.0
 10
3823.755986606128
 20
3775.578914285713
 30
0.0
 10
3823.17343121258
 20
3775.578914285713
 30
0.0
 10
3822.287700735677
 20
3775.578914285713
 30
0.0
 10
3821.432361649067
 20
3775.578914285713
 30
0.0
 10
3821.004692105761
 20
3775.578914285713
 30
0.0
  0
LINE
  5
1AC
330
1F
100
AcDbEntity
  8
0
  6
Continuous
 62
     7
370
    25
100
AcDbLine
 10
3803.613656043448
 20
3790.05891428571
 30
0.0
 11
3789.738656043448
 21
3790.05891428571
 31
0.0
  0
LINE
  5
1AD
330
1F
100
AcDbEntity
  8
0
  6
Continuous
 62
     7
370
    25
100
AcDbLine
 10
3817.488656043448
 20
3790.05891428571
 30
0.0
 11
3803.613656043448
 21
3790.05891428571
 31
0.0
  0
LINE
  5
1AE
330
1F
100
AcDbEntity
  8
0
  6
Continuous
 62
     7
370
    25
100
AcDbLine
 10
4008.613656604341
 20
3729.917489178643
 30
0.0
 11
4008.613656604341
 21
3695.725782790574
 31
0.0
  0
ARC
  5
1AF
330
1F
100
AcDbEntity
  8
0
  6
Continuous
 62
     7
370
    25
100
AcDbCircle
 10
4005.674451353058
 20
3695.789202231718
 30
0.0
 40
2.939889374564876
100
AcDbArc
 50
268.8150809834962
 51
358.7639166867347
  0
ARC
  5
1B0
330
1F
100
AcDbEntity
  8
0
  6
Continuous
 62
     7
370
    25
100
AcDbCircle
 10
3996.552863138944
 20
3695.789203570444
 30
0.0
 40
2.939890686466719
100
AcDbArc
 50
181.2361088582017
 51
271.1848934715837
  0
LINE
  5
1B1
330
1F
100
AcDbEntity
  8
0
  6
Continuous
 62
     7
370
    25
100
AcDbLine
 10
3993.613656604341
 20
3695.725782790574
 30
0.0
 11
3993.613656604341
 21
3715.529275047503
 31
0.0
  0
LINE
  5
1B2
330
1F
100
AcDbEntity
  8
0
  6
Continuous
 62
     7
370
    25
100
AcDbLine
 10
4005.613656604341
 20
3692.849941519701
 30
0.0
 11
3996.613656604342
 21
3692.849941519701
 31
0.0
  0
LINE
  5
1B3
330
1F
100
AcDbEntity
  8
0
  6
Continuous
 62
     7
370
    25
100
AcDbLine
 10
3993.613656604341
 20
3686.538036834667
 30
0.0
 11
3993.613656604341
 21
3695.725782790574
 31
0.0
  0
LINE
  5
1B4
330
1F
100
AcDbEntity
  8
0
  6
Continuous
 62
     7
370
    25
100
AcDbLine
 10
4008.613656604341
 20
3695.725782790574
 30
0.0
 11
4008.613656604341
 21
3686.538036834667
 31
0.0
  0
LINE
  5
1B5
330
1F
100
AcDbEntity
  8
0
  6
Continuous
 62
     7
370
    25
100
AcDbLine
 10
3613.613656604342
 20
3715.529240696114
 30
0.0
 11
3613.613656604341
 21
3695.728139537648
 31
0.0
  0
ARC
  5
1B6
330
1F
100
AcDbEntity
  8
0
  6
Continuous
 62
     7
370
    25
100
AcDbCircle
 10
3610.674464396291
 20
3695.791575922211
 30
0.0
 40
2.939876699923938
100
AcDbArc
 50
268.8148216180023
 51
358.763581066621
  0
LINE
  5
1B7
330
1F
100
AcDbEntity
  8
0
  6
Continuous
 62
     7
370
    25
100
AcDbLine
 10
3598.613656604341
 20
3695.728139537648
 30
0.0
 11
3598.613656604341
 21
3729.970652219404
 31
0.0
  0
ARC
  5
1B8
330
1F
100
AcDbEntity
  8
0
  6
Continuous
 62
     7
370
    25
100
AcDbCircle
 10
3601.552847528936
 20
3695.79157458333
 30
0.0
 40
2.939875387876515
100
AcDbArc
 50
181.2363933854983
 51
271.1852039298816
  0
LINE
  5
1B9
330
1F
100
AcDbEntity
  8
0
  6
Continuous
 62
     7
370
    25
100
AcDbLine
 10
3601.613656604341
 20
3692.852328157357
 30
0.0
 11
3610.613656604341
 21
3692.852328157357
 31
0.0
  0
LINE
  5
1BA
330
1F
100
AcDbEntity
  8
0
  6
Continuous
 62
     7
370
    25
100
AcDbLine
 10
3613.613656604341
 20
3695.728139537648
 30
0.0
 11
3613.613656604341
 21
3686.538036837593
 31
0.0
  0
LINE
  5
1BB
330
1F
100
AcDbEntity
  8
0
  6
Continuous
 62
     7
370
    25
100
AcDbLine
 10
3598.613656604341
 20
3686.538036837593
 30
0.0
 11
3598.613656604341
 21
3695.728139537648
 31
0.0
  0
LINE
  5
1BC
330
1F
100
AcDbEntity
  8
0
  6
Continuous
 62
     7
370
    25
100
AcDbLine
 10
3555.774246360161
 20
3740.808914285714
 30
0.0
 11
3541.47424284507
 21
3740.808914285714
 31
0.0
  0
LINE
  5
1BD
330
1F
100
AcDbEntity
  8
0
  6
Continuous
 62
     7
370
    25
100
AcDbLine
 10
4065.753070363611
 20
3740.808914285714
 30
0.0
 11
4051.452950418469
 21
3740.808914285714
 31
0.0
  0
LINE
  5
1BE
330
1F
100
AcDbEntity
  8
0
  6
Continuous
 62
     7
370
    25
100
AcDbLine
 10
3624.977320839644
 20
3736.038914285713
 30
0.0
 11
3624.977320839644
 21
3740.808914285713
 31
0.0
  0
LINE
  5
1BF
330
1F
100
AcDbEntity
  8
0
  6
Continuous
 62
     7
370
    25
100
AcDbLine
 10
3624.977041964115
 20
3736.038914285713
 30
0.0
 11
3622.837802615322
 21
3736.038914285713
 31
0.0
  0
SPLINE
  5
1C0
330
1F
100
AcDbEntity
  8
0
  6
Continuous
 62
     7
370
    25
100
AcDbSpline
210
0.0
220
0.0
230
1.0
 70
    24
 71
     3
 72
     9
 73
     5
 74
     0
 42
0.00000001
 43
0.0000000001
 40
0.0
 40
0.0
 40
0.0
 40
0.0
 40
0.4999999999999344
 40
1.0
 40
1.0
 40
1.0
 40
1.0
 10
3622.837802615322
 20
3736.038914285713
 30
0.0
 10
3622.03503121148
 20
3736.038914285713
 30
0.0
 10
3620.429488403792
 20
3736.038914285713
 30
0.0
 10
3618.65932979994
 20
3736.038914285713
 30
0.0
 10
3617.774250498014
 20
3736.038914285713
 30
0.0
  0
SPLINE
  5
1C1
330
1F
100
AcDbEntity
  8
0
  6
Continuous
 62
     7
370
    25
100
AcDbSpline
210
0.0
220
0.0
230
1.0
 70
    24
 71
     3
 72
     9
 73
     5
 74
     0
 42
0.00000001
 43
0.0000000001
 40
0.0
 40
0.0
 40
0.0
 40
0.0
 40
0.4999999999999622
 40
1.0
 40
1.0
 40
1.0
 40
1.0
 10
3617.774250498014
 20
3736.038914285713
 30
0.0
 10
3616.889171199193
 20
3736.038914285713
 30
0.0
 10
3615.119012601553
 20
3736.038914285713
 30
0.0
 10
3613.513469835068
 20
3736.038914285713
 30
0.0
 10
3612.710698451826
 20
3736.038914285713
 30
0.0
  0
LINE
  5
1C2
330
1F
100
AcDbEntity
  8
0
  6
Continuous
 62
     7
370
    25
100
AcDbLine
 10
3610.57037481941
 20
3736.038914285713
 30
0.0
 11
3612.710698413485
 21
3736.038914285713
 31
0.0
  0
LINE
  5
1C3
330
1F
100
AcDbEntity
  8
0
  6
Continuous
 62
     7
370
    25
100
AcDbLine
 10
3610.571180312672
 20
3736.038914285713
 30
0.0
 11
3610.571180312672
 21
3740.808914285713
 31
0.0
  0
SPLINE
  5
1C4
330
1F
100
AcDbEntity
  8
0
  6
Continuous
 62
     7
370
    25
100
AcDbSpline
210
0.0
220
0.0
230
1.0
 70
     8
 71
     3
 72
    17
 73
    13
 74
     0
 42
0.00000001
 43
0.0000000001
 40
0.0
 40
0.0
 40
0.0
 40
0.0
 40
0.1249078099977736
 40
0.2500010586774565
 40
0.3749594299785857
 40
0.4378148567262034
 40
0.5005386108003043
 40
0.5631656794732564
 40
0.6258373261239612
 40
0.7507197472891548
 40
0.875198643079852
 40
1.0
 40
1.0
 40
1.0
 40
1.0
 10
3610.907509635738
 20
3729.756827116836
 30
0.0
 10
3611.160630101604
 20
3728.8885768875
 30
0.0
 10
3611.66724681709
 20
3727.150787420732
 30
0.0
 10
3613.08500839259
 20
3724.840872047769
 30
0.0
 10
3614.735710229214
 20
3723.262756540304
 30
0.0
 10
3616.392714302536
 20
3722.465452963373
 30
0.0
 10
3617.785920994594
 20
3722.232027140714
 30
0.0
 10
3619.176014837536
 20
3722.47259439423
 30
0.0
 10
3620.827380243792
 20
3723.274039894493
 30
0.0
 10
3622.470196517133
 20
3724.850653742166
 30
0.0
 10
3623.883097491488
 20
3727.156478366217
 30
0.0
 10
3624.38814243435
 20
3728.88929702664
 30
0.0
 10
3624.640991560943
 20
3729.756827116832
 30
0.0
  0
SPLINE
  5
1C5
330
1F
100
AcDbEntity
  8
0
  6
Continuous
 62
     7
370
    25
100
AcDbSpline
210
0.0
220
0.0
230
1.0
 70
     8
 71
     3
 72
     9
 73
     5
 74
     0
 42
0.00000001
 43
0.0000000001
 40
0.0
 40
0.0
 40
0.0
 40
0.0
 40
0.4999949075899977
 40
1.0
 40
1.0
 40
1.0
 40
1.0
 10
3610.571862356424
 20
3736.038897861055
 30
0.0
 10
3610.575962214347
 20
3734.972983329176
 30
0.0
 10
3610.584162013704
 20
3732.841132552902
 30
0.0
 10
3610.799726363233
 20
3730.784935909523
 30
0.0
 10
3610.907509635739
 20
3729.756827116836
 30
0.0
  0
SPLINE
  5
1C6
330
1F
100
AcDbEntity
  8
0
  6
Continuous
 62
     7
370
    25
100
AcDbSpline
210
0.0
220
0.0
230
1.0
 70
     8
 71
     3
 72
     9
 73
     5
 74
     0
 42
0.00000001
 43
0.0000000001
 40
0.0
 40
0.0
 40
0.0
 40
0.0
 40
0.4999949075900359
 40
1.0
 40
1.0
 40
1.0
 40
1.0
 10
3624.97663879598
 20
3736.03889786111
 30
0.0
 10
3624.9725389386
 20
3734.972983329222
 30
0.0
 10
3624.964339140325
 20
3732.841132552928
 30
0.0
 10
3624.748774819232
 20
3730.784935909528
 30
0.0
 10
3624.640991560943
 20
3729.756827116832
 30
0.0
  0
SPLINE
  5
1C7
330
1F
100
AcDbEntity
  8
0
  6
Continuous
 62
     7
370
    25
100
AcDbSpline
210
0.0
220
0.0
230
1.0
 70
     8
 71
     3
 72
    13
 73
     9
 74
     0
 42
0.00000001
 43
0.0000000001
 40
0.0
 40
0.0
 40
0.0
 40
0.0
 40
0.0013862731590909
 40
0.1266016587744276
 40
0.251906172761789
 40
0.5015937416377675
 40
0.7504745094540269
 40
1.0
 40
1.0
 40
1.0
 40
1.0
 10
3603.402746167767
 20
3722.313369712893
 30
0.0
 10
3603.403080037816
 20
3722.312568725658
 30
0.0
 10
3603.433570783292
 20
3722.239418414684
 30
0.0
 10
3603.321043132152
 20
3722.504910722186
 30
0.0
 10
3603.01983636704
 20
3723.25545476385
 30
0.0
 10
3602.448540953789
 20
3724.856907159039
 30
0.0
 10
3601.770850108355
 20
3727.154912400926
 30
0.0
 10
3601.388096210561
 20
3728.888774588251
 30
0.0
 10
3601.196471702436
 20
3729.756827116831
 30
0.0
  0
SPLINE
  5
1C8
330
1F
100
AcDbEntity
  8
0
  6
Continuous
 62
     7
370
    25
100
AcDbSpline
210
0.0
220
0.0
230
1.0
 70
     8
 71
     3
 72
    17
 73
    13
 74
     0
 42
0.00000001
 43
0.0000000001
 40
0.0
 40
0.0
 40
0.0
 40
0.0
 40
0.1249078099977162
 40
0.2500010586773987
 40
0.374959429978502
 40
0.4378148567261238
 40
0.5005386108002325
 40
0.5631656794731864
 40
0.6258373261238832
 40
0.75071974728905
 40
0.8751986430798007
 40
1.0
 40
1.0
 40
1.0
 40
1.0
 10
3601.196471702436
 20
3729.756827116831
 30
0.0
 10
3601.510922544825
 20
3728.888576887495
 30
0.0
 10
3602.1402910647
 20
3727.15078742073
 30
0.0
 10
3603.625546169879
 20
3724.840872047761
 30
0.0
 10
3605.190268411809
 20
3723.262756540298
 30
0.0
 10
3606.58903253637
 20
3722.465452963373
 30
0.0
 10
3607.644946500637
 20
3722.232027140713
 30
0.0
 10
3608.555009092258
 20
3722.472594394234
 30
0.0
 10
3609.494716228481
 20
3723.274039894491
 30
0.0
 10
3610.259715099797
 20
3724.850653742162
 30
0.0
 10
3610.777283020697
 20
3727.156478366222
 30
0.0
 10
3610.864063345289
 20
3728.889297026645
 30
0.0
 10
3610.907509635739
 20
3729.756827116836
 30
0.0
  0
SPLINE
  5
1C9
330
1F
100
AcDbEntity
  8
0
  6
Continuous
 62
     7
370
    25
100
AcDbSpline
210
0.0
220
0.0
230
1.0
 70
     8
 71
     3
 72
    17
 73
    13
 74
     0
 42
0.00000001
 43
0.0000000001
 40
0.0
 40
0.0
 40
0.0
 40
0.0
 40
0.1249078099977209
 40
0.250001058677398
 40
0.374959429978508
 40
0.4378148567261398
 40
0.5005386108002462
 40
0.5631656794731934
 40
0.6258373261239019
 40
0.7507197472890795
 40
0.8751986430798222
 40
1.0
 40
1.0
 40
1.0
 40
1.0
 10
3624.640991560941
 20
3729.756827116832
 30
0.0
 10
3624.684507114301
 20
3728.888576887496
 30
0.0
 10
3624.7716028244
 20
3727.15078742073
 30
0.0
 10
3625.291365367478
 20
3724.840872047757
 30
0.0
 10
3626.061088050349
 20
3723.262756540297
 30
0.0
 10
3627.005681559194
 20
3722.465452963372
 30
0.0
 10
3627.920059394028
 20
3722.232027140713
 30
0.0
 10
3628.975886368066
 20
3722.472594394235
 30
0.0
 10
3630.371562585809
 20
3723.274039894496
 30
0.0
 10
3631.929856768747
 20
3724.850653742168
 30
0.0
 10
3633.410432568047
 20
3727.156478366228
 30
0.0
 10
3634.037893651263
 20
3728.889297026653
 30
0.0
 10
3634.352030024876
 20
3729.756827116847
 30
0.0
  0
SPLINE
  5
1CA
330
1F
100
AcDbEntity
  8
0
  6
Continuous
 62
     7
370
    25
100
AcDbSpline
210
0.0
220
0.0
230
1.0
 70
     8
 71
     3
 72
    12
 73
     8
 74
     0
 42
0.00000001
 43
0.0000000001
 40
0.0
 40
0.0
 40
0.0
 40
0.0
 40
0.2499361703361579
 40
0.5002433970056503
 40
0.7502807387459308
 40
0.876052254925954
 40
1.0
 40
1.0
 40
1.0
 40
1.0
 10
3634.352030024876
 20
3729.756827116847
 30
0.0
 10
3634.160596889397
 20
3728.888920609075
 30
0.0
 10
3633.777446415971
 20
3727.151819095727
 30
0.0
 10
3633.092531053136
 20
3724.836740056634
 30
0.0
 10
3632.537380507123
 20
3723.274985011745
 30
0.0
 10
3632.202930844102
 20
3722.446731398103
 30
0.0
 10
3632.164803782731
 20
3722.357804740468
 30
0.0
 10
3632.145879478457
 20
3722.313666140043
 30
0.0
  0
LINE
  5
1CB
330
1F
100
AcDbEntity
  8
0
  6
Continuous
 62
     7
370
    25
100
AcDbLine
 10
3617.774250668759
 20
3721.810974205836
 30
0.0
 11
3631.774579546838
 21
3721.810974205836
 31
0.0
  0
LINE
  5
1CC
330
1F
100
AcDbEntity
  8
0
  6
Continuous
 62
     7
370
    25
100
AcDbLine
 10
3603.773922555679
 20
3721.810974205836
 30
0.0
 11
3617.774250668759
 21
3721.810974205836
 31
0.0
  0
LINE
  5
1CD
330
1F
100
AcDbEntity
  8
0
  6
Continuous
 62
     7
370
    25
100
AcDbLine
 10
3624.976214199371
 20
3736.038914285713
 30
0.0
 11
3627.592315968847
 21
3736.038914285713
 31
0.0
  0
SPLINE
  5
1CE
330
1F
100
AcDbEntity
  8
0
  6
Continuous
 62
     7
370
    25
100
AcDbSpline
210
0.0
220
0.0
230
1.0
 70
    24
 71
     3
 72
     9
 73
     5
 74
     0
 42
0.00000001
 43
0.0000000001
 40
0.0
 40
0.0
 40
0.0
 40
0.0
 40
0.5000000000000306
 40
1.0
 40
1.0
 40
1.0
 40
1.0
 10
3632.09316298249
 20
3736.038914285713
 30
0.0
 10
3631.427128265994
 20
3736.038914285713
 30
0.0
 10
3630.095058833002
 20
3736.038914285713
 30
0.0
 10
3628.426563618255
 20
3736.038914285713
 30
0.0
 10
3627.592316010883
 20
3736.038914285713
 30
0.0
  0
SPLINE
  5
1CF
330
1F
100
AcDbEntity
  8
0
  6
Continuous
 62
     7
370
    25
100
AcDbSpline
210
0.0
220
0.0
230
1.0
 70
    24
 71
     3
 72
     9
 73
     5
 74
     0
 42
0.00000001
 43
0.0000000001
 40
0.0
 40
0.0
 40
0.0
 40
0.0
 40
0.5000000000001053
 40
1.0
 40
1.0
 40
1.0
 40
1.0
 10
3634.753260234316
 20
3736.038914285713
 30
0.0
 10
3634.452217618438
 20
3736.038914285713
 30
0.0
 10
3633.850132386684
 20
3736.038914285713
 30
0.0
 10
3632.678819450555
 20
3736.038914285713
 30
0.0
 10
3632.09316298249
 20
3736.038914285713
 30
0.0
  0
LINE
  5
1D0
330
1F
100
AcDbEntity
  8
0
  6
Continuous
 62
     7
370
    25
100
AcDbLine
 10
3635.163989497173
 20
3736.038914285713
 30
0.0
 11
3634.753260234316
 21
3736.038914285713
 31
0.0
  0
SPLINE
  5
1D1
330
1F
100
AcDbEntity
  8
0
  6
Continuous
 62
     7
370
    25
100
AcDbSpline
210
0.0
220
0.0
230
1.0
 70
     8
 71
     3
 72
     9
 73
     5
 74
     0
 42
0.00000001
 43
0.0000000001
 40
0.0
 40
0.0
 40
0.0
 40
0.0
 40
0.4999949075899911
 40
0.9999999999999998
 40
0.9999999999999998
 40
0.9999999999999998
 40
0.9999999999999998
 10
3635.16235417615
 20
3736.038897861055
 30
0.0
 10
3635.152456244321
 20
3734.972983329178
 30
0.0
 10
3635.132660179043
 20
3732.841132552908
 30
0.0
 10
3634.612241843054
 20
3730.784935909531
 30
0.0
 10
3634.352030024877
 20
3729.756827116847
 30
0.0
  0
SPLINE
  5
1D2
330
1F
100
AcDbEntity
  8
0
  6
Continuous
 62
     7
370
    25
100
AcDbSpline
210
0.0
220
0.0
230
1.0
 70
     8
 71
     3
 72
     9
 73
     5
 74
     0
 42
0.00000001
 43
0.0000000001
 40
0.0
 40
0.0
 40
0.0
 40
0.0
 40
0.4999949075939593
 40
0.9999999999999998
 40
0.9999999999999998
 40
0.9999999999999998
 40
0.9999999999999998
 10
3600.386147532915
 20
3736.038897864579
 30
0.0
 10
3600.396045464816
 20
3734.972983332097
 30
0.0
 10
3600.415841530239
 20
3732.841132554631
 30
0.0
 10
3600.936259878249
 20
3730.78493591009
 30
0.0
 10
3601.196471702436
 20
3729.756827116831
 30
0.0
  0
LINE
  5
1D3
330
1F
100
AcDbEntity
  8
0
  6
Continuous
 62
     7
370
    25
100
AcDbLine
 10
3600.384464132928
 20
3736.038914285713
 30
0.0
 11
3600.795241319535
 21
3736.038914285713
 31
0.0
  0
SPLINE
  5
1D4
330
1F
100
AcDbEntity
  8
0
  6
Continuous
 62
     7
370
    25
100
AcDbSpline
210
0.0
220
0.0
230
1.0
 70
    24
 71
     3
 72
     9
 73
     5
 74
     0
 42
0.00000001
 43
0.0000000001
 40
0.0
 40
0.0
 40
0.0
 40
0.0
 40
0.5000000000000423
 40
1.0
 40
1.0
 40
1.0
 40
1.0
 10
3603.455338337621
 20
3736.038914285713
 30
0.0
 10
3602.869681905949
 20
3736.038914285713
 30
0.0
 10
3601.698369042607
 20
3736.038914285713
 30
0.0
 10
3601.09628390202
 20
3736.038914285713
 30
0.0
 10
3600.795241331729
 20
3736.038914285713
 30
0.0
  0
SPLINE
  5
1D5
330
1F
100
AcDbEntity
  8
0
  6
Continuous
 62
     7
370
    25
100
AcDbSpline
210
0.0
220
0.0
230
1.0
 70
    24
 71
     3
 72
     9
 73
     5
 74
     0
 42
0.00000001
 43
0.0000000001
 40
0.0
 40
0.0
 40
0.0
 40
0.0
 40
0.5000000000000325
 40
0.9999999999999998
 40
0.9999999999999998
 40
0.9999999999999998
 40
0.9999999999999998
 10
3607.956185163877
 20
3736.038914285713
 30
0.0
 10
3607.121937572953
 20
3736.038914285713
 30
0.0
 10
3605.453442391106
 20
3736.038914285713
 30
0.0
 10
3604.121373022116
 20
3736.038914285713
 30
0.0
 10
3603.455338337621
 20
3736.038914285713
 30
0.0
  0
LINE
  5
1D6
330
1F
100
AcDbEntity
  8
0
  6
Continuous
 62
     7
370
    25
100
AcDbLine
 10
3610.570797205312
 20
3736.038914285713
 30
0.0
 11
3607.956185163877
 21
3736.038914285713
 31
0.0
  0
LINE
  5
1D7
330
1F
100
AcDbEntity
  8
0
  6
Continuous
 62
     7
370
    25
100
AcDbLine
 10
3635.1640007753
 20
3736.038914285713
 30
0.0
 11
3635.1640007753
 21
3740.808914285713
 31
0.0
  0
LINE
  5
1D8
330
1F
100
AcDbEntity
  8
0
  6
Continuous
 62
     7
370
    25
100
AcDbLine
 10
3600.384500933631
 20
3736.038914285713
 30
0.0
 11
3600.384500933631
 21
3740.808914285713
 31
0.0
  0
LINE
  5
1D9
330
1F
100
AcDbEntity
  8
0
  6
Continuous
 62
     7
370
    25
100
AcDbLine
 10
3635.16324124288
 20
3736.038914285713
 30
0.0
 11
3636.722644251745
 21
3736.038914285713
 31
0.0
  0
SPLINE
  5
1DA
330
1F
100
AcDbEntity
  8
0
  6
Continuous
 62
     7
370
    25
100
AcDbSpline
210
0.0
220
0.0
230
1.0
 70
    24
 71
     3
 72
     9
 73
     5
 74
     0
 42
0.00000001
 43
0.0000000001
 40
0.0
 40
0.0
 40
0.0
 40
0.0
 40
0.4999999999999534
 40
1.0
 40
1.0
 40
1.0
 40
1.0
 10
3638.024251056076
 20
3736.038914285713
 30
0.0
 10
3637.967415025816
 20
3736.038914285713
 30
0.0
 10
3637.853742965297
 20
3736.038914285713
 30
0.0
 10
3637.099677170333
 20
3736.038914285713
 30
0.0
 10
3636.722644272851
 20
3736.038914285713
 30
0.0
  0
SPLINE
  5
1DB
330
1F
100
AcDbEntity
  8
0
  6
Continuous
 62
     7
370
    25
100
AcDbSpline
210
0.0
220
0.0
230
1.0
 70
    24
 71
     3
 72
    11
 73
     7
 74
     0
 42
0.00000001
 43
0.0000000001
 40
0.0
 40
0.0
 40
0.0
 40
0.0
 40
0.2499287463065777
 40
0.4999524975377187
 40
0.749976248768876
 40
1.0
 40
1.0
 40
1.0
 40
1.0
 10
3597.524322045425
 20
3736.038914285713
 30
0.0
 10
3597.560183638431
 20
3736.038914285713
 30
0.0
 10
3597.631920456438
 20
3736.038914285713
 30
0.0
 10
3598.214475777388
 20
3736.038914285713
 30
0.0
 10
3599.100206203346
 20
3736.038914285713
 30
0.0
 10
3599.955545262574
 20
3736.038914285713
 30
0.0
 10
3600.383214792189
 20
3736.038914285713
 30
0.0
  0
LINE
  5
1DC
330
1F
100
AcDbEntity
  8
0
  6
Continuous
 62
     7
370
    25
100
AcDbLine
 10
3617.774250672184
 20
3721.558914285715
 30
0.0
 11
3631.649251051257
 21
3721.558914285717
 31
0.0
  0
LINE
  5
1DD
330
1F
100
AcDbEntity
  8
0
  6
Continuous
 62
     7
370
    25
100
AcDbLine
 10
3603.899251051259
 20
3721.558914285717
 30
0.0
 11
3617.774250672184
 21
3721.558914285715
 31
0.0
  0
LINE
  5
1DE
330
1F
100
AcDbEntity
  8
0
  6
Continuous
 62
     7
370
    25
100
AcDbLine
 10
3996.655979076225
 20
3736.038914285714
 30
0.0
 11
3996.655979076225
 21
3740.808914285714
 31
0.0
  0
LINE
  5
1DF
330
1F
100
AcDbEntity
  8
0
  6
Continuous
 62
     7
370
    25
100
AcDbLine
 10
3996.655700200695
 20
3736.038914285714
 30
0.0
 11
3994.516460851905
 21
3736.038914285714
 31
0.0
  0
SPLINE
  5
1E0
330
1F
100
AcDbEntity
  8
0
  6
Continuous
 62
     7
370
    25
100
AcDbSpline
210
0.0
220
0.0
230
1.0
 70
    24
 71
     3
 72
     9
 73
     5
 74
     0
 42
0.00000001
 43
0.0000000001
 40
0.0
 40
0.0
 40
0.0
 40
0.0
 40
0.4999999999999786
 40
1.0
 40
1.0
 40
1.0
 40
1.0
 10
3994.516460851905
 20
3736.038914285714
 30
0.0
 10
3993.71368944806
 20
3736.038914285714
 30
0.0
 10
3992.108146640373
 20
3736.038914285714
 30
0.0
 10
3990.337988036521
 20
3736.038914285714
 30
0.0
 10
3989.452908734595
 20
3736.038914285714
 30
0.0
  0
SPLINE
  5
1E1
330
1F
100
AcDbEntity
  8
0
  6
Continuous
 62
     7
370
    25
100
AcDbSpline
210
0.0
220
0.0
230
1.0
 70
    24
 71
     3
 72
     9
 73
     5
 74
     0
 42
0.00000001
 43
0.0000000001
 40
0.0
 40
0.0
 40
0.0
 40
0.0
 40
0.4999999999999519
 40
1.0
 40
1.0
 40
1.0
 40
1.0
 10
3989.452908734595
 20
3736.038914285714
 30
0.0
 10
3988.567829435774
 20
3736.038914285714
 30
0.0
 10
3986.797670838134
 20
3736.038914285714
 30
0.0
 10
3985.19212807165
 20
3736.038914285714
 30
0.0
 10
3984.389356688408
 20
3736.038914285714
 30
0.0
  0
LINE
  5
1E2
330
1F
100
AcDbEntity
  8
0
  6
Continuous
 62
     7
370
    25
100
AcDbLine
 10
3982.24903305599
 20
3736.038914285714
 30
0.0
 11
3984.389356650067
 21
3736.038914285714
 31
0.0
  0
LINE
  5
1E3
330
1F
100
AcDbEntity
  8
0
  6
Continuous
 62
     7
370
    25
100
AcDbLine
 10
3982.249838549253
 20
3736.038914285714
 30
0.0
 11
3982.249838549253
 21
3740.808914285714
 31
0.0
  0
SPLINE
  5
1E4
330
1F
100
AcDbEntity
  8
0
  6
Continuous
 62
     7
370
    25
100
AcDbSpline
210
0.0
220
0.0
230
1.0
 70
     8
 71
     3
 72
    17
 73
    13
 74
     0
 42
0.00000001
 43
0.0000000001
 40
0.0
 40
0.0
 40
0.0
 40
0.0
 40
0.1249078099977722
 40
0.250001058677452
 40
0.3749594299785842
 40
0.4378148567261972
 40
0.5005386108002976
 40
0.5631656794732518
 40
0.6258373261239577
 40
0.7507197472891498
 40
0.8751986430798492
 40
1.0
 40
1.0
 40
1.0
 40
1.0
 10
3982.58616787232
 20
3729.756827116837
 30
0.0
 10
3982.839288338185
 20
3728.888576887501
 30
0.0
 10
3983.345905053671
 20
3727.150787420733
 30
0.0
 10
3984.763666629172
 20
3724.840872047769
 30
0.0
 10
3986.414368465795
 20
3723.262756540306
 30
0.0
 10
3988.071372539117
 20
3722.465452963373
 30
0.0
 10
3989.464579231176
 20
3722.232027140714
 30
0.0
 10
3990.854673074117
 20
3722.472594394231
 30
0.0
 10
3992.506038480374
 20
3723.274039894494
 30
0.0
 10
3994.148854753716
 20
3724.850653742166
 30
0.0
 10
3995.56175572807
 20
3727.156478366218
 30
0.0
 10
3996.066800670931
 20
3728.889297026641
 30
0.0
 10
3996.319649797524
 20
3729.756827116833
 30
0.0
  0
SPLINE
  5
1E5
330
1F
100
AcDbEntity
  8
0
  6
Continuous
 62
     7
370
    25
100
AcDbSpline
210
0.0
220
0.0
230
1.0
 70
     8
 71
     3
 72
     9
 73
     5
 74
     0
 42
0.00000001
 43
0.0000000001
 40
0.0
 40
0.0
 40
0.0
 40
0.0
 40
0.4999949075899899
 40
1.0
 40
1.0
 40
1.0
 40
1.0
 10
3982.250520593005
 20
3736.038897861055
 30
0.0
 10
3982.254620450927
 20
3734.972983329177
 30
0.0
 10
3982.262820250285
 20
3732.841132552903
 30
0.0
 10
3982.478384599814
 20
3730.784935909524
 30
0.0
 10
3982.586167872321
 20
3729.756827116837
 30
0.0
  0
SPLINE
  5
1E6
330
1F
100
AcDbEntity
  8
0
  6
Continuous
 62
     7
370
    25
100
AcDbSpline
210
0.0
220
0.0
230
1.0
 70
     8
 71
     3
 72
     9
 73
     5
 74
     0
 42
0.00000001
 43
0.0000000001
 40
0.0
 40
0.0
 40
0.0
 40
0.0
 40
0.4999949075900352
 40
1.0
 40
1.0
 40
1.0
 40
1.0
 10
3996.655297032562
 20
3736.038897861111
 30
0.0
 10
3996.651197175181
 20
3734.972983329222
 30
0.0
 10
3996.642997376907
 20
3732.841132552928
 30
0.0
 10
3996.427433055813
 20
3730.784935909529
 30
0.0
 10
3996.319649797523
 20
3729.756827116833
 30
0.0
  0
SPLINE
  5
1E7
330
1F
100
AcDbEntity
  8
0
  6
Continuous
 62
     7
370
    25
100
AcDbSpline
210
0.0
220
0.0
230
1.0
 70
     8
 71
     3
 72
    13
 73
     9
 74
     0
 42
0.00000001
 43
0.0000000001
 40
0.0
 40
0.0
 40
0.0
 40
0.0
 40
0.001386273159071
 40
0.1266016587744101
 40
0.2519061727617917
 40
0.5015937416377656
 40
0.7504745094540365
 40
1.0
 40
1.0
 40
1.0
 40
1.0
 10
3975.081404404348
 20
3722.313369712894
 30
0.0
 10
3975.081738274396
 20
3722.312568725658
 30
0.0
 10
3975.112229019876
 20
3722.239418414683
 30
0.0
 10
3974.999701368732
 20
3722.504910722187
 30
0.0
 10
3974.698494603622
 20
3723.25545476385
 30
0.0
 10
3974.12719919037
 20
3724.85690715904
 30
0.0
 10
3973.449508344936
 20
3727.154912400926
 30
0.0
 10
3973.066754447142
 20
3728.888774588252
 30
0.0
 10
3972.875129939018
 20
3729.756827116832
 30
0.0
  0
SPLINE
  5
1E8
330
1F
100
AcDbEntity
  8
0
  6
Continuous
 62
     7
370
    25
100
AcDbSpline
210
0.0
220
0.0
230
1.0
 70
     8
 71
     3
 72
    17
 73
    13
 74
     0
 42
0.00000001
 43
0.0000000001
 40
0.0
 40
0.0
 40
0.0
 40
0.0
 40
0.124907809997715
 40
0.2500010586773971
 40
0.3749594299784995
 40
0.4378148567261161
 40
0.50053861080023
 40
0.5631656794731859
 40
0.6258373261238842
 40
0.7507197472890513
 40
0.8751986430798025
 40
1.0
 40
1.0
 40
1.0
 40
1.0
 10
3972.875129939017
 20
3729.756827116831
 30
0.0
 10
3973.189580781406
 20
3728.888576887495
 30
0.0
 10
3973.818949301281
 20
3727.150787420731
 30
0.0
 10
3975.30420440646
 20
3724.840872047761
 30
0.0
 10
3976.868926648391
 20
3723.262756540299
 30
0.0
 10
3978.267690772951
 20
3722.465452963373
 30
0.0
 10
3979.323604737217
 20
3722.232027140714
 30
0.0
 10
3980.233667328839
 20
3722.472594394234
 30
0.0
 10
3981.173374465062
 20
3723.274039894491
 30
0.0
 10
3981.938373336379
 20
3724.850653742163
 30
0.0
 10
3982.455941257278
 20
3727.156478366223
 30
0.0
 10
3982.54272158187
 20
3728.889297026646
 30
0.0
 10
3982.586167872321
 20
3729.756827116837
 30
0.0
  0
SPLINE
  5
1E9
330
1F
100
AcDbEntity
  8
0
  6
Continuous
 62
     7
370
    25
100
AcDbSpline
210
0.0
220
0.0
230
1.0
 70
     8
 71
     3
 72
    17
 73
    13
 74
     0
 42
0.00000001
 43
0.0000000001
 40
0.0
 40
0.0
 40
0.0
 40
0.0
 40
0.1249078099977213
 40
0.2500010586774018
 40
0.3749594299785041
 40
0.4378148567261341
 40
0.5005386108002413
 40
0.5631656794731893
 40
0.6258373261239031
 40
0.7507197472890753
 40
0.875198643079816
 40
1.0
 40
1.0
 40
1.0
 40
1.0
 10
3996.319649797523
 20
3729.756827116833
 30
0.0
 10
3996.363165350881
 20
3728.888576887497
 30
0.0
 10
3996.450261060981
 20
3727.15078742073
 30
0.0
 10
3996.970023604059
 20
3724.840872047758
 30
0.0
 10
3997.739746286931
 20
3723.262756540297
 30
0.0
 10
3998.684339795775
 20
3722.465452963373
 30
0.0
 10
3999.598717630609
 20
3722.232027140714
 30
0.0
 10
4000.654544604645
 20
3722.472594394236
 30
0.0
 10
4002.050220822389
 20
3723.274039894496
 30
0.0
 10
4003.608515005327
 20
3724.850653742168
 30
0.0
 10
4005.089090804626
 20
3727.156478366228
 30
0.0
 10
4005.716551887843
 20
3728.889297026654
 30
0.0
 10
4006.030688261457
 20
3729.756827116847
 30
0.0
  0
SPLINE
  5
1EA
330
1F
100
AcDbEntity
  8
0
  6
Continuous
 62
     7
370
    25
100
AcDbSpline
210
0.0
220
0.0
230
1.0
 70
     8
 71
     3
 72
    12
 73
     8
 74
     0
 42
0.00000001
 43
0.0000000001
 40
0.0
 40
0.0
 40
0.0
 40
0.0
 40
0.2499361703361564
 40
0.500243397005661
 40
0.7502807387459461
 40
0.8760522549259523
 40
1.0
 40
1.0
 40
1.0
 40
1.0
 10
4006.030688261456
 20
3729.756827116847
 30
0.0
 10
4005.839255125978
 20
3728.888920609075
 30
0.0
 10
4005.456104652552
 20
3727.151819095728
 30
0.0
 10
4004.771189289716
 20
3724.836740056635
 30
0.0
 10
4004.216038743704
 20
3723.274985011746
 30
0.0
 10
4003.881589080683
 20
3722.446731398103
 30
0.0
 10
4003.843462019312
 20
3722.357804740468
 30
0.0
 10
4003.824537715037
 20
3722.313666140044
 30
0.0
  0
LINE
  5
1EB
330
1F
100
AcDbEntity
  8
0
  6
Continuous
 62
     7
370
    25
100
AcDbLine
 10
3989.452908905341
 20
3721.810974205836
 30
0.0
 11
4003.453237783418
 21
3721.810974205836
 31
0.0
  0
LINE
  5
1EC
330
1F
100
AcDbEntity
  8
0
  6
Continuous
 62
     7
370
    25
100
AcDbLine
 10
3975.452580792261
 20
3721.810974205836
 30
0.0
 11
3989.452908905341
 21
3721.810974205836
 31
0.0
  0
LINE
  5
1ED
330
1F
100
AcDbEntity
  8
0
  6
Continuous
 62
     7
370
    25
100
AcDbLine
 10
3996.654872435953
 20
3736.038914285714
 30
0.0
 11
3999.270974205428
 21
3736.038914285714
 31
0.0
  0
SPLINE
  5
1EE
330
1F
100
AcDbEntity
  8
0
  6
Continuous
 62
     7
370
    25
100
AcDbSpline
210
0.0
220
0.0
230
1.0
 70
    24
 71
     3
 72
     9
 73
     5
 74
     0
 42
0.00000001
 43
0.0000000001
 40
0.0
 40
0.0
 40
0.0
 40
0.0
 40
0.500000000000039
 40
1.0
 40
1.0
 40
1.0
 40
1.0
 10
4003.77182121907
 20
3736.038914285714
 30
0.0
 10
4003.105786502574
 20
3736.038914285714
 30
0.0
 10
4001.773717069583
 20
3736.038914285714
 30
0.0
 10
4000.105221854837
 20
3736.038914285714
 30
0.0
 10
3999.270974247464
 20
3736.038914285714
 30
0.0
  0
SPLINE
  5
1EF
330
1F
100
AcDbEntity
  8
0
  6
Continuous
 62
     7
370
    25
100
AcDbSpline
210
0.0
220
0.0
230
1.0
 70
    24
 71
     3
 72
     9
 73
     5
 74
     0
 42
0.00000001
 43
0.0000000001
 40
0.0
 40
0.0
 40
0.0
 40
0.0
 40
0.5000000000001203
 40
1.0
 40
1.0
 40
1.0
 40
1.0
 10
4006.431918470896
 20
3736.038914285714
 30
0.0
 10
4006.13087585502
 20
3736.038914285714
 30
0.0
 10
4005.528790623265
 20
3736.038914285714
 30
0.0
 10
4004.357477687135
 20
3736.038914285714
 30
0.0
 10
4003.77182121907
 20
3736.038914285714
 30
0.0
  0
LINE
  5
1F0
330
1F
100
AcDbEntity
  8
0
  6
Continuous
 62
     7
370
    25
100
AcDbLine
 10
4006.842647733753
 20
3736.038914285714
 30
0.0
 11
4006.431918470896
 21
3736.038914285714
 31
0.0
  0
SPLINE
  5
1F1
330
1F
100
AcDbEntity
  8
0
  6
Continuous
 62
     7
370
    25
100
AcDbSpline
210
0.0
220
0.0
230
1.0
 70
     8
 71
     3
 72
     9
 73
     5
 74
     0
 42
0.00000001
 43
0.0000000001
 40
0.0
 40
0.0
 40
0.0
 40
0.0
 40
0.4999949075899832
 40
1.0
 40
1.0
 40
1.0
 40
1.0
 10
4006.84101241273
 20
3736.038897861055
 30
0.0
 10
4006.831114480902
 20
3734.972983329179
 30
0.0
 10
4006.811318415625
 20
3732.841132552909
 30
0.0
 10
4006.290900079635
 20
3730.784935909531
 30
0.0
 10
4006.030688261457
 20
3729.756827116847
 30
0.0
  0
SPLINE
  5
1F2
330
1F
100
AcDbEntity
  8
0
  6
Continuous
 62
     7
370
    25
100
AcDbSpline
210
0.0
220
0.0
230
1.0
 70
     8
 71
     3
 72
     9
 73
     5
 74
     0
 42
0.00000001
 43
0.0000000001
 40
0.0
 40
0.0
 40
0.0
 40
0.0
 40
0.4999949075939555
 40
1.0
 40
1.0
 40
1.0
 40
1.0
 10
3972.064805769495
 20
3736.03889786458
 30
0.0
 10
3972.074703701397
 20
3734.972983332097
 30
0.0
 10
3972.094499766819
 20
3732.841132554631
 30
0.0
 10
3972.61491811483
 20
3730.78493591009
 30
0.0
 10
3972.875129939017
 20
3729.756827116831
 30
0.0
  0
LINE
  5
1F3
330
1F
100
AcDbEntity
  8
0
  6
Continuous
 62
     7
370
    25
100
AcDbLine
 10
3972.06312236951
 20
3736.038914285714
 30
0.0
 11
3972.473899556117
 21
3736.038914285714
 31
0.0
  0
SPLINE
  5
1F4
330
1F
100
AcDbEntity
  8
0
  6
Continuous
 62
     7
370
    25
100
AcDbSpline
210
0.0
220
0.0
230
1.0
 70
    24
 71
     3
 72
     9
 73
     5
 74
     0
 42
0.00000001
 43
0.0000000001
 40
0.0
 40
0.0
 40
0.0
 40
0.0
 40
0.5000000000000493
 40
1.0
 40
1.0
 40
1.0
 40
1.0
 10
3975.133996574203
 20
3736.038914285714
 30
0.0
 10
3974.548340142531
 20
3736.038914285714
 30
0.0
 10
3973.377027279188
 20
3736.038914285714
 30
0.0
 10
3972.774942138602
 20
3736.038914285714
 30
0.0
 10
3972.473899568309
 20
3736.038914285714
 30
0.0
  0
SPLINE
  5
1F5
330
1F
100
AcDbEntity
  8
0
  6
Continuous
 62
     7
370
    25
100
AcDbSpline
210
0.0
220
0.0
230
1.0
 70
    24
 71
     3
 72
     9
 73
     5
 74
     0
 42
0.00000001
 43
0.0000000001
 40
0.0
 40
0.0
 40
0.0
 40
0.0
 40
0.5000000000000565
 40
1.0
 40
1.0
 40
1.0
 40
1.0
 10
3979.634843400458
 20
3736.038914285714
 30
0.0
 10
3978.800595809534
 20
3736.038914285714
 30
0.0
 10
3977.132100627687
 20
3736.038914285714
 30
0.0
 10
3975.800031258697
 20
3736.038914285714
 30
0.0
 10
3975.133996574203
 20
3736.038914285714
 30
0.0
  0
LINE
  5
1F6
330
1F
100
AcDbEntity
  8
0
  6
Continuous
 62
     7
370
    25
100
AcDbLine
 10
3982.249455441893
 20
3736.038914285714
 30
0.0
 11
3979.634843400458
 21
3736.038914285714
 31
0.0
  0
LINE
  5
1F7
330
1F
100
AcDbEntity
  8
0
  6
Continuous
 62
     7
370
    25
100
AcDbLine
 10
4006.842659011881
 20
3736.038914285714
 30
0.0
 11
4006.842659011881
 21
3740.808914285714
 31
0.0
  0
LINE
  5
1F8
330
1F
100
AcDbEntity
  8
0
  6
Continuous
 62
     7
370
    25
100
AcDbLine
 10
3972.063159170212
 20
3736.038914285714
 30
0.0
 11
3972.063159170212
 21
3740.808914285714
 31
0.0
  0
LINE
  5
1F9
330
1F
100
AcDbEntity
  8
0
  6
Continuous
 62
     7
370
    25
100
AcDbLine
 10
4006.841899479462
 20
3736.038914285714
 30
0.0
 11
4008.401302488326
 21
3736.038914285714
 31
0.0
  0
SPLINE
  5
1FA
330
1F
100
AcDbEntity
  8
0
  6
Continuous
 62
     7
370
    25
100
AcDbSpline
210
0.0
220
0.0
230
1.0
 70
    24
 71
     3
 72
     9
 73
     5
 74
     0
 42
0.00000001
 43
0.0000000001
 40
0.0
 40
0.0
 40
0.0
 40
0.0
 40
0.4999999999999531
 40
1.0
 40
1.0
 40
1.0
 40
1.0
 10
4009.702909292657
 20
3736.038914285714
 30
0.0
 10
4009.646073262397
 20
3736.038914285714
 30
0.0
 10
4009.532401201878
 20
3736.038914285714
 30
0.0
 10
4008.778335406914
 20
3736.038914285714
 30
0.0
 10
4008.401302509432
 20
3736.038914285714
 30
0.0
  0
SPLINE
  5
1FB
330
1F
100
AcDbEntity
  8
0
  6
Continuous
 62
     7
370
    25
100
AcDbSpline
210
0.0
220
0.0
230
1.0
 70
    24
 71
     3
 72
    11
 73
     7
 74
     0
 42
0.00000001
 43
0.0000000001
 40
0.0
 40
0.0
 40
0.0
 40
0.0
 40
0.2499287463065074
 40
0.499952497537689
 40
0.7499762487688601
 40
1.0
 40
1.0
 40
1.0
 40
1.0
 10
3969.202980282006
 20
3736.038914285714
 30
0.0
 10
3969.238841875011
 20
3736.038914285714
 30
0.0
 10
3969.310578693019
 20
3736.038914285714
 30
0.0
 10
3969.893134013968
 20
3736.038914285714
 30
0.0
 10
3970.778864439927
 20
3736.038914285714
 30
0.0
 10
3971.634203499156
 20
3736.038914285714
 30
0.0
 10
3972.06187302877
 20
3736.038914285714
 30
0.0
  0
LINE
  5
1FC
330
1F
100
AcDbEntity
  8
0
  6
Continuous
 62
     7
370
    25
100
AcDbLine
 10
3989.452908908765
 20
3721.558914285715
 30
0.0
 11
4003.327909287839
 21
3721.558914285717
 31
0.0
  0
LINE
  5
1FD
330
1F
100
AcDbEntity
  8
0
  6
Continuous
 62
     7
370
    25
100
AcDbLine
 10
3975.577909287841
 20
3721.558914285717
 30
0.0
 11
3989.452908908765
 21
3721.558914285715
 31
0.0
  0
SPLINE
  5
1FE
330
1F
100
AcDbEntity
  8
0
  6
Continuous
 62
     7
370
    25
100
AcDbSpline
210
0.0
220
0.0
230
1.0
 70
    24
 71
     3
 72
     9
 73
     5
 74
     0
 42
0.00000001
 43
0.0000000001
 40
0.0
 40
0.0
 40
0.0
 40
0.0
 40
0.4999999999999144
 40
1.0
 40
1.0
 40
1.0
 40
1.0
 10
3570.974242838848
 20
3736.038914285714
 30
0.0
 10
3570.089163538492
 20
3736.038914285714
 30
0.0
 10
3568.319004937781
 20
3736.038914285714
 30
0.0
 10
3566.713462150927
 20
3736.038914285714
 30
0.0
 10
3565.9106907575
 20
3736.038914285714
 30
0.0
  0
LINE
  5
1FF
330
1F
100
AcDbEntity
  8
0
  6
Continuous
 62
     7
370
    25
100
AcDbLine
 10
3563.770367082958
 20
3736.038914285714
 30
0.0
 11
3565.910690719159
 21
3736.038914285714
 31
0.0
  0
LINE
  5
200
330
1F
100
AcDbEntity
  8
0
  6
Continuous
 62
     7
370
    25
100
AcDbLine
 10
3563.771172576242
 20
3736.038914285714
 30
0.0
 11
3563.771172576242
 21
3740.808914285714
 31
0.0
  0
SPLINE
  5
201
330
1F
100
AcDbEntity
  8
0
  6
Continuous
 62
     7
370
    25
100
AcDbSpline
210
0.0
220
0.0
230
1.0
 70
     8
 71
     3
 72
    15
 73
    11
 74
     0
 42
0.00000001
 43
0.0000000001
 40
0.0
 40
0.0
 40
0.0
 40
0.0
 40
0.199087894719334
 40
0.3984713561993205
 40
0.597639839501862
 40
0.6978237638144586
 40
0.797797817860623
 40
0.897617767107693
 40
0.9975087682428956
 40
1.0
 40
1.0
 40
1.0
 40
1.0
 10
3564.107501877375
 20
3729.756827116837
 30
0.0
 10
3564.360649094341
 20
3728.888544939656
 30
0.0
 10
3564.86731935174
 20
3727.150691529767
 30
0.0
 10
3566.284678954182
 20
3724.841256103428
 30
0.0
 10
3567.936654321066
 20
3723.261619942114
 30
0.0
 10
3569.591047851599
 20
3722.467433426107
 30
0.0
 10
3570.992224093446
 20
3722.224491703794
 30
0.0
 10
3572.352448778821
 20
3722.500723686666
 30
0.0
 10
3573.265116739142
 20
3722.817216225311
 30
0.0
 10
3573.605396914059
 20
3723.128538115755
 30
0.0
 10
3573.613676834844
 20
3723.136113404536
 30
0.0
  0
SPLINE
  5
202
330
1F
100
AcDbEntity
  8
0
  6
Continuous
 62
     7
370
    25
100
AcDbSpline
210
0.0
220
0.0
230
1.0
 70
     8
 71
     3
 72
     9
 73
     5
 74
     0
 42
0.00000001
 43
0.0000000001
 40
0.0
 40
0.0
 40
0.0
 40
0.0
 40
0.4999949075899844
 40
0.9999999999999998
 40
0.9999999999999998
 40
0.9999999999999998
 40
0.9999999999999998
 10
3563.77185461995
 20
3736.038897861055
 30
0.0
 10
3563.775954477605
 20
3734.972983329177
 30
0.0
 10
3563.784154276428
 20
3732.841132552903
 30
0.0
 10
3563.999718611898
 20
3730.784935909524
 30
0.0
 10
3564.107501877376
 20
3729.756827116837
 30
0.0
  0
SPLINE
  5
203
330
1F
100
AcDbEntity
  8
0
  6
Continuous
 62
     7
370
    25
100
AcDbSpline
210
0.0
220
0.0
230
1.0
 70
     8
 71
     3
 72
    13
 73
     9
 74
     0
 42
0.00000001
 43
0.0000000001
 40
0.0
 40
0.0
 40
0.0
 40
0.0
 40
0.0013863084645794
 40
0.1266016896529964
 40
0.2519061992102785
 40
0.5015937592586722
 40
0.7504745182758624
 40
1.0
 40
1.0
 40
1.0
 40
1.0
 10
3556.602737936227
 20
3722.313369773545
 30
0.0
 10
3556.603071815015
 20
3722.312568765674
 30
0.0
 10
3556.63356258944
 20
3722.239418415283
 30
0.0
 10
3556.5210349711
 20
3722.504910705187
 30
0.0
 10
3556.21982823916
 20
3723.255454773627
 30
0.0
 10
3555.648532875867
 20
3724.856907155751
 30
0.0
 10
3554.970842066842
 20
3727.154912401751
 30
0.0
 10
3554.588088182927
 20
3728.888774588526
 30
0.0
 10
3554.396463681749
 20
3729.756827116832
 30
0.0
  0
SPLINE
  5
204
330
1F
100
AcDbEntity
  8
0
  6
Continuous
 62
     7
370
    25
100
AcDbSpline
210
0.0
220
0.0
230
1.0
 70
     8
 71
     3
 72
    17
 73
    13
 74
     0
 42
0.00000001
 43
0.0000000001
 40
0.0
 40
0.0
 40
0.0
 40
0.0
 40
0.1249078099977134
 40
0.2500010586773953
 40
0.3749594299785031
 40
0.4378148567261234
 40
0.500538610800235
 40
0.5631656794731796
 40
0.6258373261238845
 40
0.7507197472890518
 40
0.8751986430798062
 40
1.0
 40
1.0
 40
1.0
 40
1.0
 10
3554.396463681749
 20
3729.756827116831
 30
0.0
 10
3554.710914525312
 20
3728.888576887496
 30
0.0
 10
3555.340283047542
 20
3727.150787420731
 30
0.0
 10
3556.825538166759
 20
3724.840872047761
 30
0.0
 10
3558.390260429483
 20
3723.262756540299
 30
0.0
 10
3559.78902457956
 20
3722.465452963373
 30
0.0
 10
3560.844938568526
 20
3722.232027140714
 30
0.0
 10
3561.755001188668
 20
3722.472594394235
 30
0.0
 10
3562.694708362593
 20
3723.274039894491
 30
0.0
 10
3563.459707276004
 20
3724.850653742163
 30
0.0
 10
3563.977275236899
 20
3727.156478366223
 30
0.0
 10
3564.06405557844
 20
3728.889297026646
 30
0.0
 10
3564.107501877376
 20
3729.756827116837
 30
0.0
  0
LINE
  5
205
330
1F
100
AcDbEntity
  8
0
  6
Continuous
 62
     7
370
    25
100
AcDbLine
 10
3570.974242840771
 20
3721.810974205836
 30
0.0
 11
3573.613676834844
 21
3721.810974205836
 31
0.0
  0
LINE
  5
206
330
1F
100
AcDbEntity
  8
0
  6
Continuous
 62
     7
370
    25
100
AcDbLine
 10
3556.973914349501
 20
3721.810974205836
 30
0.0
 11
3570.974242840771
 21
3721.810974205836
 31
0.0
  0
SPLINE
  5
207
330
1F
100
AcDbEntity
  8
0
  6
Continuous
 62
     7
370
    25
100
AcDbSpline
210
0.0
220
0.0
230
1.0
 70
     8
 71
     3
 72
     9
 73
     5
 74
     0
 42
0.00000001
 43
0.0000000001
 40
0.0
 40
0.0
 40
0.0
 40
0.0
 40
0.4999949075939492
 40
0.9999999999999998
 40
0.9999999999999998
 40
0.9999999999999998
 40
0.9999999999999998
 10
3553.586139521293
 20
3736.03889786458
 30
0.0
 10
3553.596037453085
 20
3734.972983332097
 30
0.0
 10
3553.615833518285
 20
3732.841132554631
 30
0.0
 10
3554.136251860473
 20
3730.78493591009
 30
0.0
 10
3554.396463681749
 20
3729.756827116832
 30
0.0
  0
LINE
  5
208
330
1F
100
AcDbEntity
  8
0
  6
Continuous
 62
     7
370
    25
100
AcDbLine
 10
3553.584456121292
 20
3736.038914285714
 30
0.0
 11
3553.995233378572
 21
3736.038914285714
 31
0.0
  0
SPLINE
  5
209
330
1F
100
AcDbEntity
  8
0
  6
Continuous
 62
     7
370
    25
100
AcDbSpline
210
0.0
220
0.0
230
1.0
 70
    24
 71
     3
 72
     9
 73
     5
 74
     0
 42
0.00000001
 43
0.0000000001
 40
0.0
 40
0.0
 40
0.0
 40
0.0
 40
0.4999999999999799
 40
1.0
 40
1.0
 40
1.0
 40
1.0
 10
3556.65533051824
 20
3736.038914285714
 30
0.0
 10
3556.069674068576
 20
3736.038914285714
 30
0.0
 10
3554.89836116925
 20
3736.038914285714
 30
0.0
 10
3554.296275983593
 20
3736.038914285714
 30
0.0
 10
3553.995233390764
 20
3736.038914285714
 30
0.0
  0
SPLINE
  5
20A
330
1F
100
AcDbEntity
  8
0
  6
Continuous
 62
     7
370
    25
100
AcDbSpline
210
0.0
220
0.0
230
1.0
 70
    24
 71
     3
 72
     9
 73
     5
 74
     0
 42
0.00000001
 43
0.0000000001
 40
0.0
 40
0.0
 40
0.0
 40
0.0
 40
0.4999999999999841
 40
1.0
 40
1.0
 40
1.0
 40
1.0
 10
3561.156177416352
 20
3736.038914285714
 30
0.0
 10
3560.321929817296
 20
3736.038914285714
 30
0.0
 10
3558.653434619185
 20
3736.038914285714
 30
0.0
 10
3557.321365218554
 20
3736.038914285714
 30
0.0
 10
3556.65533051824
 20
3736.038914285714
 30
0.0
  0
LINE
  5
20B
330
1F
100
AcDbEntity
  8
0
  6
Continuous
 62
     7
370
    25
100
AcDbLine
 10
3563.770789468881
 20
3736.038914285714
 30
0.0
 11
3561.156177416352
 21
3736.038914285714
 31
0.0
  0
LINE
  5
20C
330
1F
100
AcDbEntity
  8
0
  6
Continuous
 62
     7
370
    25
100
AcDbLine
 10
3553.584492922028
 20
3736.038914285714
 30
0.0
 11
3553.584492922028
 21
3740.808914285714
 31
0.0
  0
SPLINE
  5
20D
330
1F
100
AcDbEntity
  8
0
  6
Continuous
 62
     7
370
    25
100
AcDbSpline
210
0.0
220
0.0
230
1.0
 70
    24
 71
     3
 72
    11
 73
     7
 74
     0
 42
0.00000001
 43
0.0000000001
 40
0.0
 40
0.0
 40
0.0
 40
0.0
 40
0.2499287732742515
 40
0.4999525155161781
 40
0.7499762577580976
 40
1.0
 40
1.0
 40
1.0
 40
1.0
 10
3550.724313812388
 20
3736.038914285714
 30
0.0
 10
3550.760175426656
 20
3736.038914285714
 30
0.0
 10
3550.831912282037
 20
3736.038914285714
 30
0.0
 10
3551.414467674768
 20
3736.038914285714
 30
0.0
 10
3552.300198151097
 20
3736.038914285714
 30
0.0
 10
3553.1555372374
 20
3736.038914285714
 30
0.0
 10
3553.58320678055
 20
3736.038914285714
 30
0.0
  0
LINE
  5
20E
330
1F
100
AcDbEntity
  8
0
  6
Continuous
 62
     7
370
    25
100
AcDbLine
 10
4012.613656604342
 20
3699.314898112581
 30
0.0
 11
4019.296701306672
 21
3699.32836848968
 31
0.0
  0
SPLINE
  5
20F
330
1F
100
AcDbEntity
  8
0
  6
Continuous
 62
     7
370
    25
100
AcDbSpline
210
0.0
220
0.0
230
1.0
 70
     8
 71
     3
 72
    12
 73
     8
 74
     0
 42
0.00000001
 43
0.0000000001
 40
0.0
 40
0.0
 40
0.0
 40
0.0
 40
0.1333573662449965
 40
0.2614702036050964
 40
0.5008872781506481
 40
0.7514329470558278
 40
1.0
 40
1.0
 40
1.0
 40
1.0
 10
4019.296701306672
 20
3699.32836848968
 30
0.0
 10
4019.302829934484
 20
3699.119638258097
 30
0.0
 10
4019.31484617031
 20
3698.710386503306
 30
0.0
 10
4019.336292101022
 20
3697.959577135375
 30
0.0
 10
4019.358603435826
 20
3697.146290770614
 30
0.0
 10
4019.377045157905
 20
3696.463062881113
 30
0.0
 10
4019.37940030224
 20
3696.373256587201
 30
0.0
 10
4019.380573206198
 20
3696.328531448297
 30
0.0
  0
LINE
  5
210
330
1F
100
AcDbEntity
  8
0
  6
Continuous
 62
     7
370
    25
100
AcDbLine
 10
4019.380573206198
 20
3696.328531448297
 30
0.0
 11
4012.619703406513
 21
3696.314904206556
 31
0.0
  0
LINE
  5
211
330
1F
100
AcDbEntity
  8
0
  6
Continuous
 62
     7
370
    25
100
AcDbLine
 10
4012.613656604342
 20
3699.31489811258
 30
0.0
 11
4012.619703406513
 21
3696.314904206556
 31
0.0
  0
ARC
  5
212
330
1F
100
AcDbEntity
  8
0
  6
Continuous
 62
     7
370
    25
100
AcDbCircle
 10
4018.613676834843
 20
3711.308914285714
 30
0.0
 40
12.00000000000053
100
AcDbArc
 50
273.262965107556
 51
0.0
  0
LINE
  5
213
330
1F
100
AcDbEntity
  8
0
  6
Continuous
 62
     7
370
    25
100
AcDbLine
 10
4030.613676834843
 20
3711.308914285714
 30
0.0
 11
4033.613676834843
 21
3711.308914285714
 31
0.0
  0
ARC
  5
214
330
1F
100
AcDbEntity
  8
0
  6
Continuous
 62
     7
370
    25
100
AcDbCircle
 10
4018.613676834843
 20
3711.308914285714
 30
0.0
 40
15.00000000000006
100
AcDbArc
 50
272.9306060310356
 51
0.0
  0
LINE
  5
215
330
1F
100
AcDbEntity
  8
0
  6
Continuous
 62
     7
370
    25
100
AcDbLine
 10
4012.613656604342
 20
3732.308914285714
 30
0.0
 11
4012.613656604342
 21
3699.31489811258
 31
0.0
  0
LINE
  5
216
330
1F
100
AcDbEntity
  8
0
  6
Continuous
 62
     7
370
    25
100
AcDbLine
 10
3594.613656604341
 20
3699.308914285714
 30
0.0
 11
3594.61365660434
 21
3732.308914285713
 31
0.0
  0
LINE
  5
217
330
1F
100
AcDbEntity
  8
0
  6
Continuous
 62
     7
370
    25
100
AcDbLine
 10
3588.613676834844
 20
3699.308914285713
 30
0.0
 11
3594.613656604341
 21
3699.308914285714
 31
0.0
  0
ARC
  5
218
330
1F
100
AcDbEntity
  8
0
  6
Continuous
 62
     7
370
    25
100
AcDbCircle
 10
3588.613676834844
 20
3711.308914285713
 30
0.0
 40
12.00000000000091
100
AcDbArc
 50
180.0
 51
270.0000000000008
  0
LINE
  5
219
330
1F
100
AcDbEntity
  8
0
  6
Continuous
 62
     7
370
    25
100
AcDbLine
 10
3573.613676834844
 20
3711.308914285713
 30
0.0
 11
3573.613676834844
 21
3740.808914285714
 31
0.0
  0
LINE
  5
21A
330
1F
100
AcDbEntity
  8
0
  6
Continuous
 62
     7
370
    25
100
AcDbLine
 10
3573.613676834844
 20
3711.308914285713
 30
0.0
 11
3576.613676834843
 21
3711.308914285713
 31
0.0
  0
LINE
  5
21B
330
1F
100
AcDbEntity
  8
0
  6
Continuous
 62
     7
370
    25
100
AcDbLine
 10
3597.613656604341
 20
3732.308914285713
 30
0.0
 11
3597.613656604341
 21
3699.308914285714
 31
0.0
  0
LINE
  5
21C
330
1F
100
AcDbEntity
  8
0
  6
Continuous
 62
     7
370
    25
100
AcDbLine
 10
3597.613656604341
 20
3699.308914285714
 30
0.0
 11
3594.613656604341
 21
3699.308914285714
 31
0.0
  0
LINE
  5
21D
330
1F
100
AcDbEntity
  8
0
  6
Continuous
 62
     7
370
    25
100
AcDbLine
 10
3597.613656604341
 20
3732.308914285713
 30
0.0
 11
3594.61365660434
 21
3732.308914285713
 31
0.0
  0
LINE
  5
21E
330
1F
100
AcDbEntity
  8
0
  6
Continuous
 62
     7
370
    25
100
AcDbLine
 10
4012.613656604342
 20
3732.308914285714
 30
0.0
 11
4009.613656604341
 21
3732.308914285714
 31
0.0
  0
LWPOLYLINE
  5
21F
330
1F
100
AcDbEntity
  8
0
  6
Continuous
 62
     7
370
    25
100
AcDbPolyline
 90
        3
 70
   128
 43
0.0
 10
4009.613656604341
 20
3732.308914285714
 10
4009.536797725954
 20
3733.089275573779
 10
4009.494150433078
 20
3733.279361422417
  0
LWPOLYLINE
  5
220
330
1F
100
AcDbEntity
  8
0
  6
Continuous
 62
     7
370
    25
100
AcDbPolyline
 90
        3
 70
   128
 43
0.0
 10
3597.745955946002
 20
3733.329155246219
 10
3597.690515482728
 20
3733.089275573779
 10
3597.613656604341
 20
3732.308914285713
  0
LINE
  5
221
330
1F
100
AcDbEntity
  8
0
  6
Continuous
 62
     7
370
    25
100
AcDbLine
 10
3594.613656604341
 20
3696.308914285714
 30
0.0
 11
3594.613656604341
 21
3699.308914285714
 31
0.0
  0
ARC
  5
222
330
1F
100
AcDbEntity
  8
0
  6
Continuous
 62
     7
370
    25
100
AcDbCircle
 10
3594.613656604341
 20
3699.308914285714
 30
0.0
 40
3.000000000000454
100
AcDbArc
 50
270.0000000000008
 51
0.0
  0
ARC
  5
223
330
1F
100
AcDbEntity
  8
0
  6
Continuous
 62
     7
370
    25
100
AcDbCircle
 10
4012.613656604342
 20
3699.31489811258
 30
0.0
 40
3.000000000000454
100
AcDbArc
 50
180.0
 51
270.1154854928401
  0
LINE
  5
224
330
1F
100
AcDbEntity
  8
0
  6
Continuous
 62
     7
370
    25
100
AcDbLine
 10
4012.613656604342
 20
3699.31489811258
 30
0.0
 11
4009.613656604341
 21
3699.31489811258
 31
0.0
  0
LINE
  5
225
330
1F
100
AcDbEntity
  8
0
  6
Continuous
 62
     7
370
    25
100
AcDbLine
 10
4033.613676834843
 20
3740.808914285715
 30
0.0
 11
4033.613676834843
 21
3711.308914285714
 31
0.0
  0
LINE
  5
226
330
1F
100
AcDbEntity
  8
0
  6
Continuous
 62
     7
370
    25
100
AcDbLine
 10
4009.613656604341
 20
3699.31489811258
 30
0.0
 11
4009.613656604341
 21
3732.308914285714
 31
0.0
  0
ARC
  5
227
330
1F
100
AcDbEntity
  8
0
  6
Continuous
 62
     7
370
    25
100
AcDbCircle
 10
3588.613676834844
 20
3711.308914285713
 30
0.0
 40
15.0
100
AcDbArc
 50
180.0
 51
270.0000000000008
  0
LINE
  5
228
330
1F
100
AcDbEntity
  8
0
  6
Continuous
 62
     7
370
    25
100
AcDbLine
 10
3588.613676834844
 20
3696.308914285713
 30
0.0
 11
3588.613676834844
 21
3699.308914285713
 31
0.0
  0
LINE
  5
229
330
1F
100
AcDbEntity
  8
0
  6
Continuous
 62
     7
370
    25
100
AcDbLine
 10
3594.613656604341
 20
3696.308914285714
 30
0.0
 11
3588.613676834844
 21
3696.308914285713
 31
0.0
  0
LINE
  5
22A
330
1F
100
AcDbEntity
  8
0
  6
Continuous
 62
     7
370
    25
100
AcDbLine
 10
3570.97424284081
 20
3721.558914285715
 30
0.0
 11
3573.613676834844
 21
3721.558914285715
 31
0.0
  0
LINE
  5
22B
330
1F
100
AcDbEntity
  8
0
  6
Continuous
 62
     7
370
    25
100
AcDbLine
 10
3557.099242845081
 20
3721.558914285717
 30
0.0
 11
3570.97424284081
 21
3721.558914285715
 31
0.0
  0
LINE
  5
22C
330
1F
100
AcDbEntity
  8
0
  6
Continuous
 62
     7
370
    25
100
AcDbLine
 10
4043.456140627089
 20
3736.038914285714
 30
0.0
 11
4043.456140627089
 21
3740.808914285714
 31
0.0
  0
SPLINE
  5
22D
330
1F
100
AcDbEntity
  8
0
  6
Continuous
 62
     7
370
    25
100
AcDbSpline
210
0.0
220
0.0
230
1.0
 70
    24
 71
     3
 72
    13
 73
     9
 74
     0
 42
0.00000001
 43
0.0000000001
 40
0.0
 40
0.0
 40
0.0
 40
0.0
 40
0.0654685167446246
 40
0.2523748133956951
 40
0.4392811100467675
 40
0.6261874066978394
 40
0.8130937033489093
 40
1.0
 40
1.0
 40
1.0
 40
1.0
 10
4033.613676834843
 20
3736.038914285714
 30
0.0
 10
4033.834641669311
 20
3736.038914285714
 30
0.0
 10
4034.686439779893
 20
3736.038914285714
 30
0.0
 10
4036.256326273144
 20
3736.038914285714
 30
0.0
 10
4038.236196614735
 20
3736.038914285714
 30
0.0
 10
4040.147281360241
 20
3736.038914285714
 30
0.0
 10
4041.936327155549
 20
3736.038914285714
 30
0.0
 10
4042.948626565451
 20
3736.038914285714
 30
0.0
 10
4043.454776270404
 20
3736.038914285714
 30
0.0
  0
SPLINE
  5
22E
330
1F
100
AcDbEntity
  8
0
  6
Continuous
 62
     7
370
    25
100
AcDbSpline
210
0.0
220
0.0
230
1.0
 70
     8
 71
     3
 72
     9
 73
     5
 74
     0
 42
0.00000001
 43
0.0000000001
 40
0.0
 40
0.0
 40
0.0
 40
0.0
 40
0.4999949075939569
 40
1.0
 40
1.0
 40
1.0
 40
1.0
 10
4043.455458583342
 20
3736.03889786458
 30
0.0
 10
4043.451358725753
 20
3734.972983332097
 30
0.0
 10
4043.44315892706
 20
3732.841132554631
 30
0.0
 10
4043.227594591651
 20
3730.78493591009
 30
0.0
 10
4043.119811326204
 20
3729.756827116832
 30
0.0
  0
SPLINE
  5
22F
330
1F
100
AcDbEntity
  8
0
  6
Continuous
 62
     7
370
    25
100
AcDbSpline
210
0.0
220
0.0
230
1.0
 70
     8
 71
     3
 72
    15
 73
    11
 74
     0
 42
0.00000001
 43
0.0000000001
 40
0.0
 40
0.0
 40
0.0
 40
0.0
 40
0.0039658413760491
 40
0.1041291829226099
 40
0.2040826973205489
 40
0.3038821385801889
 40
0.4037526171303715
 40
0.6027591508789432
 40
0.8011226462774587
 40
0.9999999999999998
 40
0.9999999999999998
 40
0.9999999999999998
 40
0.9999999999999998
 10
4033.613676834843
 20
3723.140232032543
 30
0.0
 10
4033.626864907337
 20
3723.1281701009
 30
0.0
 10
4033.97313776167
 20
3722.811465783362
 30
0.0
 10
4034.894656106707
 20
3722.493149413447
 30
0.0
 10
4036.258571236229
 20
3722.224637144712
 30
0.0
 10
4037.656451266938
 20
3722.474530960568
 30
0.0
 10
4039.305270181788
 20
3723.27292617457
 30
0.0
 10
4040.949329094307
 20
3724.851028480182
 30
0.0
 10
4042.3618388989
 20
3727.156384525244
 30
0.0
 10
4042.866936057812
 20
3728.889265719352
 30
0.0
 10
4043.119811326204
 20
3729.756827116832
 30
0.0
  0
SPLINE
  5
230
330
1F
100
AcDbEntity
  8
0
  6
Continuous
 62
     7
370
    25
100
AcDbSpline
210
0.0
220
0.0
230
1.0
 70
     8
 71
     3
 72
    17
 73
    13
 74
     0
 42
0.00000001
 43
0.0000000001
 40
0.0
 40
0.0
 40
0.0
 40
0.0
 40
0.1249078099977195
 40
0.250001058677398
 40
0.3749594299785075
 40
0.4378148567261281
 40
0.5005386108002336
 40
0.5631656794731838
 40
0.6258373261238885
 40
0.7507197472890593
 40
0.8751986430798083
 40
1.0
 40
1.0
 40
1.0
 40
1.0
 10
4043.119811326203
 20
3729.756827116831
 30
0.0
 10
4043.163326870971
 20
3728.888576887496
 30
0.0
 10
4043.250422563876
 20
3727.150787420731
 30
0.0
 10
4043.770185066381
 20
3724.840872047761
 30
0.0
 10
4044.539907706496
 20
3723.262756540299
 30
0.0
 10
4045.484501177124
 20
3722.465452963374
 30
0.0
 10
4046.398878983108
 20
3722.232027140714
 30
0.0
 10
4047.454705932281
 20
3722.472594394235
 30
0.0
 10
4048.850382124351
 20
3723.274039894491
 30
0.0
 10
4050.408676286389
 20
3724.850653742163
 30
0.0
 10
4051.889252071545
 20
3727.156478366223
 30
0.0
 10
4052.516713152394
 20
3728.889297026646
 30
0.0
 10
4052.830849524822
 20
3729.756827116837
 30
0.0
  0
SPLINE
  5
231
330
1F
100
AcDbEntity
  8
0
  6
Continuous
 62
     7
370
    25
100
AcDbSpline
210
0.0
220
0.0
230
1.0
 70
     8
 71
     3
 72
    12
 73
     8
 74
     0
 42
0.00000001
 43
0.0000000001
 40
0.0
 40
0.0
 40
0.0
 40
0.0
 40
0.2499361792672019
 40
0.5002434148810494
 40
0.7502807655560274
 40
0.8760522862302632
 40
1.0
 40
1.0
 40
1.0
 40
1.0
 10
4052.830849524822
 20
3729.756827116837
 30
0.0
 10
4052.639416382509
 20
3728.888920609267
 30
0.0
 10
4052.256265895401
 20
3727.15181909632
 30
0.0
 10
4051.571350492642
 20
3724.836740054235
 30
0.0
 10
4051.016199905295
 20
3723.274985018834
 30
0.0
 10
4050.681750213366
 20
3722.446731445028
 30
0.0
 10
4050.64362312927
 20
3722.357804792686
 30
0.0
 10
4050.624698816464
 20
3722.313666201297
 30
0.0
  0
LINE
  5
232
330
1F
100
AcDbEntity
  8
0
  6
Continuous
 62
     7
370
    25
100
AcDbLine
 10
4033.613676834843
 20
3721.810974205836
 30
0.0
 11
4050.253398859182
 21
3721.810974205836
 31
0.0
  0
LINE
  5
233
330
1F
100
AcDbEntity
  8
0
  6
Continuous
 62
     7
370
    25
100
AcDbLine
 10
4043.454887217253
 20
3736.038914285714
 30
0.0
 11
4046.071135745051
 21
3736.038914285714
 31
0.0
  0
SPLINE
  5
234
330
1F
100
AcDbEntity
  8
0
  6
Continuous
 62
     7
370
    25
100
AcDbSpline
210
0.0
220
0.0
230
1.0
 70
    24
 71
     3
 72
     9
 73
     5
 74
     0
 42
0.00000001
 43
0.0000000001
 40
0.0
 40
0.0
 40
0.0
 40
0.0
 40
0.4999999999999587
 40
1.0
 40
1.0
 40
1.0
 40
1.0
 10
4050.571982686037
 20
3736.038914285714
 30
0.0
 10
4049.905947985541
 20
3736.038914285714
 30
0.0
 10
4048.573878584551
 20
3736.038914285714
 30
0.0
 10
4046.905383386254
 20
3736.038914285714
 30
0.0
 10
4046.071135787106
 20
3736.038914285714
 30
0.0
  0
SPLINE
  5
235
330
1F
100
AcDbEntity
  8
0
  6
Continuous
 62
     7
370
    25
100
AcDbSpline
210
0.0
220
0.0
230
1.0
 70
    24
 71
     3
 72
     9
 73
     5
 74
     0
 42
0.00000001
 43
0.0000000001
 40
0.0
 40
0.0
 40
0.0
 40
0.0
 40
0.4999999999999898
 40
0.9999999999999998
 40
0.9999999999999998
 40
0.9999999999999998
 40
0.9999999999999998
 10
4053.232079814896
 20
3736.038914285714
 30
0.0
 10
4052.931037221812
 20
3736.038914285714
 30
0.0
 10
4052.328952035641
 20
3736.038914285714
 30
0.0
 10
4051.157639135904
 20
3736.038914285714
 30
0.0
 10
4050.571982686037
 20
3736.038914285714
 30
0.0
  0
LINE
  5
236
330
1F
100
AcDbEntity
  8
0
  6
Continuous
 62
     7
370
    25
100
AcDbLine
 10
4053.64280900632
 20
3736.038914285714
 30
0.0
 11
4053.232079814896
 21
3736.038914285714
 31
0.0
  0
SPLINE
  5
237
330
1F
100
AcDbEntity
  8
0
  6
Continuous
 62
     7
370
    25
100
AcDbSpline
210
0.0
220
0.0
230
1.0
 70
     8
 71
     3
 72
     9
 73
     5
 74
     0
 42
0.00000001
 43
0.0000000001
 40
0.0
 40
0.0
 40
0.0
 40
0.0
 40
0.4999949075899745
 40
1.0
 40
1.0
 40
1.0
 40
1.0
 10
4053.641173685268
 20
3736.038897861055
 30
0.0
 10
4053.631275753327
 20
3734.972983329177
 30
0.0
 10
4053.611479687828
 20
3732.841132552903
 30
0.0
 10
4053.091061345946
 20
3730.784935909524
 30
0.0
 10
4052.830849524822
 20
3729.756827116837
 30
0.0
  0
LINE
  5
238
330
1F
100
AcDbEntity
  8
0
  6
Continuous
 62
     7
370
    25
100
AcDbLine
 10
4053.642820284437
 20
3736.038914285714
 30
0.0
 11
4053.642820284437
 21
3740.808914285714
 31
0.0
  0
LINE
  5
239
330
1F
100
AcDbEntity
  8
0
  6
Continuous
 62
     7
370
    25
100
AcDbLine
 10
4053.642060752039
 20
3736.038914285714
 30
0.0
 11
4055.201463702429
 21
3736.038914285714
 31
0.0
  0
SPLINE
  5
23A
330
1F
100
AcDbEntity
  8
0
  6
Continuous
 62
     7
370
    25
100
AcDbSpline
210
0.0
220
0.0
230
1.0
 70
    24
 71
     3
 72
     9
 73
     5
 74
     0
 42
0.00000001
 43
0.0000000001
 40
0.0
 40
0.0
 40
0.0
 40
0.0
 40
0.4999999999999966
 40
1.0
 40
1.0
 40
1.0
 40
1.0
 10
4056.50307036842
 20
3736.038914285714
 30
0.0
 10
4056.446234362342
 20
3736.038914285714
 30
0.0
 10
4056.332562350185
 20
3736.038914285714
 30
0.0
 10
4055.578496599085
 20
3736.038914285714
 30
0.0
 10
4055.201463723536
 20
3736.038914285714
 30
0.0
  0
LINE
  5
23B
330
1F
100
AcDbEntity
  8
0
  6
Continuous
 62
     7
370
    25
100
AcDbLine
 10
4033.613676834843
 20
3721.558914285718
 30
0.0
 11
4050.128070363603
 21
3721.558914285715
 31
0.0
  0
LINE
  5
23C
330
1F
100
AcDbEntity
  8
0
  6
Continuous
 62
     7
370
    25
100
AcDbLine
 10
3982.24983931298
 20
3775.578914285713
 30
0.0
 11
3982.24983931298
 21
3770.808914285713
 31
0.0
  0
LINE
  5
23D
330
1F
100
AcDbEntity
  8
0
  6
Continuous
 62
     7
370
    25
100
AcDbLine
 10
3982.250118188503
 20
3775.578914285713
 30
0.0
 11
3984.389357494719
 21
3775.578914285713
 31
0.0
  0
SPLINE
  5
23E
330
1F
100
AcDbEntity
  8
0
  6
Continuous
 62
     7
370
    25
100
AcDbSpline
210
0.0
220
0.0
230
1.0
 70
    24
 71
     3
 72
     9
 73
     5
 74
     0
 42
0.00000001
 43
0.0000000001
 40
0.0
 40
0.0
 40
0.0
 40
0.0
 40
0.4999999999999963
 40
1.0
 40
1.0
 40
1.0
 40
1.0
 10
3984.389357494719
 20
3775.578914285713
 30
0.0
 10
3985.192128888261
 20
3775.578914285713
 30
0.0
 10
3986.797671675347
 20
3775.578914285713
 30
0.0
 10
3988.567830276093
 20
3775.578914285713
 30
0.0
 10
3989.452909576467
 20
3775.578914285713
 30
0.0
  0
SPLINE
  5
23F
330
1F
100
AcDbEntity
  8
0
  6
Continuous
 62
     7
370
    25
100
AcDbSpline
210
0.0
220
0.0
230
1.0
 70
    24
 71
     3
 72
     9
 73
     5
 74
     0
 42
0.00000001
 43
0.0000000001
 40
0.0
 40
0.0
 40
0.0
 40
0.0
 40
0.500000000000024
 40
1.0
 40
1.0
 40
1.0
 40
1.0
 10
3989.452909576467
 20
3775.578914285713
 30
0.0
 10
3990.33798887684
 20
3775.578914285713
 30
0.0
 10
3992.108147477586
 20
3775.578914285713
 30
0.0
 10
3993.713690264672
 20
3775.578914285713
 30
0.0
 10
3994.516461658215
 20
3775.578914285713
 30
0.0
  0
LINE
  5
240
330
1F
100
AcDbEntity
  8
0
  6
Continuous
 62
     7
370
    25
100
AcDbLine
 10
3996.656785333236
 20
3775.578914285713
 30
0.0
 11
3994.516461696557
 21
3775.578914285713
 31
0.0
  0
LINE
  5
241
330
1F
100
AcDbEntity
  8
0
  6
Continuous
 62
     7
370
    25
100
AcDbLine
 10
3996.655979839953
 20
3775.578914285713
 30
0.0
 11
3996.655979839953
 21
3770.808914285713
 31
0.0
  0
SPLINE
  5
242
330
1F
100
AcDbEntity
  8
0
  6
Continuous
 62
     7
370
    25
100
AcDbSpline
210
0.0
220
0.0
230
1.0
 70
     8
 71
     3
 72
    17
 73
    13
 74
     0
 42
0.00000001
 43
0.0000000001
 40
0.0
 40
0.0
 40
0.0
 40
0.0
 40
0.1249078099977767
 40
0.2500010586774519
 40
0.3749594299785743
 40
0.4378148567261937
 40
0.5005386108003015
 40
0.5631656794732458
 40
0.6258373261239602
 40
0.7507197472891541
 40
0.8751986430798554
 40
1.0
 40
1.0
 40
1.0
 40
1.0
 10
3996.319650539071
 20
3781.861001454581
 30
0.0
 10
3996.066530078442
 20
3782.729251683919
 30
0.0
 10
3995.559913373437
 20
3784.467041150689
 30
0.0
 10
3994.142151816587
 20
3786.776956523655
 30
0.0
 10
3992.491449995319
 20
3788.355072031118
 30
0.0
 10
3990.834445930772
 20
3789.152375608053
 30
0.0
 10
3989.441239241447
 20
3789.385801430713
 30
0.0
 10
3988.051145395688
 20
3789.145234177198
 30
0.0
 10
3986.399779980621
 20
3788.343788676935
 30
0.0
 10
3984.756963691954
 20
3786.767174829261
 30
0.0
 10
3983.344062698994
 20
3784.461350205207
 30
0.0
 10
3982.839017745686
 20
3782.728531544782
 30
0.0
 10
3982.586168613865
 20
3781.86100145459
 30
0.0
  0
SPLINE
  5
243
330
1F
100
AcDbEntity
  8
0
  6
Continuous
 62
     7
370
    25
100
AcDbSpline
210
0.0
220
0.0
230
1.0
 70
     8
 71
     3
 72
     9
 73
     5
 74
     0
 42
0.00000001
 43
0.0000000001
 40
0.0
 40
0.0
 40
0.0
 40
0.0
 40
0.4999949075900058
 40
1.0
 40
1.0
 40
1.0
 40
1.0
 10
3996.655297796245
 20
3775.578930710372
 30
0.0
 10
3996.651197938593
 20
3776.644845242248
 30
0.0
 10
3996.642998139776
 20
3778.776696018518
 30
0.0
 10
3996.427433804467
 20
3780.832892661896
 30
0.0
 10
3996.31965053907
 20
3781.86100145458
 30
0.0
  0
SPLINE
  5
244
330
1F
100
AcDbEntity
  8
0
  6
Continuous
 62
     7
370
    25
100
AcDbSpline
210
0.0
220
0.0
230
1.0
 70
     8
 71
     3
 72
     9
 73
     5
 74
     0
 42
0.00000001
 43
0.0000000001
 40
0.0
 40
0.0
 40
0.0
 40
0.0
 40
0.4999949075900337
 40
1.0
 40
1.0
 40
1.0
 40
1.0
 10
3982.250521356688
 20
3775.578930710316
 30
0.0
 10
3982.254621214339
 20
3776.644845242204
 30
0.0
 10
3982.262821013152
 20
3778.776696018497
 30
0.0
 10
3982.478385348466
 20
3780.832892661895
 30
0.0
 10
3982.586168613865
 20
3781.86100145459
 30
0.0
  0
SPLINE
  5
245
330
1F
100
AcDbEntity
  8
0
  6
Continuous
 62
     7
370
    25
100
AcDbSpline
210
0.0
220
0.0
230
1.0
 70
     8
 71
     3
 72
    13
 73
     9
 74
     0
 42
0.00000001
 43
0.0000000001
 40
0.0
 40
0.0
 40
0.0
 40
0.0
 40
0.0013863088666764
 40
0.1266016900046827
 40
0.251906199511498
 40
0.5015937594593594
 40
0.7504745183763402
 40
1.0
 40
1.0
 40
1.0
 40
1.0
 10
4003.824414485607
 20
3789.304458797191
 30
0.0
 10
4003.82408060672
 20
3789.305259805298
 30
0.0
 10
4003.793589831964
 20
3789.378410156137
 30
0.0
 10
4003.906117449932
 20
3789.112917866435
 30
0.0
 10
4004.207324181494
 20
3788.362373797689
 30
0.0
 10
4004.778619544218
 20
3786.760921415714
 30
0.0
 10
4005.456310352827
 20
3784.462916169668
 30
0.0
 10
4005.839064236586
 20
3782.729053982897
 30
0.0
 10
4006.030688737685
 20
3781.861001454594
 30
0.0
  0
SPLINE
  5
246
330
1F
100
AcDbEntity
  8
0
  6
Continuous
 62
     7
370
    25
100
AcDbSpline
210
0.0
220
0.0
230
1.0
 70
     8
 71
     3
 72
    17
 73
    13
 74
     0
 42
0.00000001
 43
0.0000000001
 40
0.0
 40
0.0
 40
0.0
 40
0.0
 40
0.1249078099977218
 40
0.2500010586774024
 40
0.3749594299785103
 40
0.4378148567261305
 40
0.500538610800242
 40
0.5631656794731982
 40
0.6258373261239112
 40
0.750719747289085
 40
0.8751986430798222
 40
0.9999999999999998
 40
0.9999999999999998
 40
0.9999999999999998
 40
0.9999999999999998
 10
4006.030688737685
 20
3781.861001454594
 30
0.0
 10
4005.716237894108
 20
3782.72925168393
 30
0.0
 10
4005.086869371853
 20
3784.467041150696
 30
0.0
 10
4003.601614252474
 20
3786.77695652367
 30
0.0
 10
4002.036891989511
 20
3788.35507203113
 30
0.0
 10
4000.638127839144
 20
3789.152375608054
 30
0.0
 10
3999.582213849894
 20
3789.385801430714
 30
0.0
 10
3998.672151229428
 20
3789.145234177191
 30
0.0
 10
3997.732444055074
 20
3788.343788676932
 30
0.0
 10
3996.967445141183
 20
3786.76717482926
 30
0.0
 10
3996.449877179827
 20
3784.461350205199
 30
0.0
 10
3996.3630968381
 20
3782.728531544773
 30
0.0
 10
3996.31965053907
 20
3781.861001454581
 30
0.0
  0
SPLINE
  5
247
330
1F
100
AcDbEntity
  8
0
  6
Continuous
 62
     7
370
    25
100
AcDbSpline
210
0.0
220
0.0
230
1.0
 70
     8
 71
     3
 72
    17
 73
    13
 74
     0
 42
0.00000001
 43
0.0000000001
 40
0.0
 40
0.0
 40
0.0
 40
0.0
 40
0.1249078099977221
 40
0.2500010586774027
 40
0.3749594299785059
 40
0.4378148567261423
 40
0.5005386108002507
 40
0.5631656794731913
 40
0.6258373261239015
 40
0.7507197472890727
 40
0.8751986430798169
 40
1.0
 40
1.0
 40
1.0
 40
1.0
 10
3982.586168613865
 20
3781.86100145459
 30
0.0
 10
3982.5426530691
 20
3782.729251683927
 30
0.0
 10
3982.4555573762
 20
3784.467041150693
 30
0.0
 10
3981.935794873692
 20
3786.776956523663
 30
0.0
 10
3981.166072233575
 20
3788.355072031126
 30
0.0
 10
3980.221478762948
 20
3789.152375608052
 30
0.0
 10
3979.307100956964
 20
3789.385801430714
 30
0.0
 10
3978.251274007791
 20
3789.145234177194
 30
0.0
 10
3976.855597815721
 20
3788.343788676937
 30
0.0
 10
3975.297303653682
 20
3786.767174829265
 30
0.0
 10
3973.816727868524
 20
3784.461350205206
 30
0.0
 10
3973.189266787676
 20
3782.728531544782
 30
0.0
 10
3972.875130415248
 20
3781.861001454591
 30
0.0
  0
SPLINE
  5
248
330
1F
100
AcDbEntity
  8
0
  6
Continuous
 62
     7
370
    25
100
AcDbSpline
210
0.0
220
0.0
230
1.0
 70
     8
 71
     3
 72
    12
 73
     8
 74
     0
 42
0.00000001
 43
0.0000000001
 40
0.0
 40
0.0
 40
0.0
 40
0.0
 40
0.2499589306161067
 40
0.5003031747955469
 40
0.7503322143367838
 40
0.8760959971021113
 40
0.9999999999999998
 40
0.9999999999999998
 40
0.9999999999999998
 40
0.9999999999999998
 10
3972.875130415248
 20
3781.861001454591
 30
0.0
 10
3973.06658209797
 20
3782.728986022519
 30
0.0
 10
3973.449780587618
 20
3784.466293163085
 30
0.0
 10
3974.134755709155
 20
3786.781484460704
 30
0.0
 10
3974.689910531028
 20
3788.343183680253
 30
0.0
 10
3975.024265740466
 20
3789.171180533635
 30
0.0
 10
3975.062370936578
 20
3789.260056569605
 30
0.0
 10
3975.081281611485
 20
3789.304163567987
 30
0.0
  0
LINE
  5
249
330
1F
100
AcDbEntity
  8
0
  6
Continuous
 62
     7
370
    25
100
AcDbLine
 10
4003.453238072046
 20
3789.806854365591
 30
0.0
 11
3975.452581080887
 21
3789.806854365591
 31
0.0
  0
LINE
  5
24A
330
1F
100
AcDbEntity
  8
0
  6
Continuous
 62
     7
370
    25
100
AcDbLine
 10
3982.250945953252
 20
3775.578914285713
 30
0.0
 11
3979.634844194999
 21
3775.578914285713
 31
0.0
  0
SPLINE
  5
24B
330
1F
100
AcDbEntity
  8
0
  6
Continuous
 62
     7
370
    25
100
AcDbSpline
210
0.0
220
0.0
230
1.0
 70
    24
 71
     3
 72
     9
 73
     5
 74
     0
 42
0.00000001
 43
0.0000000001
 40
0.0
 40
0.0
 40
0.0
 40
0.0
 40
0.4999999999999275
 40
1.0
 40
1.0
 40
1.0
 40
1.0
 10
3975.133997254032
 20
3775.578914285713
 30
0.0
 10
3975.800031954527
 20
3775.578914285713
 30
0.0
 10
3977.132101355519
 20
3775.578914285713
 30
0.0
 10
3978.800596553816
 20
3775.578914285713
 30
0.0
 10
3979.634844152964
 20
3775.578914285713
 30
0.0
  0
SPLINE
  5
24C
330
1F
100
AcDbEntity
  8
0
  6
Continuous
 62
     7
370
    25
100
AcDbSpline
210
0.0
220
0.0
230
1.0
 70
    24
 71
     3
 72
     9
 73
     5
 74
     0
 42
0.00000001
 43
0.0000000001
 40
0.0
 40
0.0
 40
0.0
 40
0.0
 40
0.4999999999999273
 40
1.0
 40
1.0
 40
1.0
 40
1.0
 10
3972.473900125173
 20
3775.578914285713
 30
0.0
 10
3972.774942718258
 20
3775.578914285713
 30
0.0
 10
3973.377027904428
 20
3775.578914285713
 30
0.0
 10
3974.548340804164
 20
3775.578914285713
 30
0.0
 10
3975.133997254032
 20
3775.578914285713
 30
0.0
  0
LINE
  5
24D
330
1F
100
AcDbEntity
  8
0
  6
Continuous
 62
     7
370
    25
100
AcDbLine
 10
3972.063170933749
 20
3775.578914285713
 30
0.0
 11
3972.473900125173
 21
3775.578914285713
 31
0.0
  0
SPLINE
  5
24E
330
1F
100
AcDbEntity
  8
0
  6
Continuous
 62
     7
370
    25
100
AcDbSpline
210
0.0
220
0.0
230
1.0
 70
     8
 71
     3
 72
     9
 73
     5
 74
     0
 42
0.00000001
 43
0.0000000001
 40
0.0
 40
0.0
 40
0.0
 40
0.0
 40
0.4999949075899773
 40
1.0
 40
1.0
 40
1.0
 40
1.0
 10
3972.064806254801
 20
3775.578930710372
 30
0.0
 10
3972.074704186741
 20
3776.64484524225
 30
0.0
 10
3972.094500252241
 20
3778.776696018525
 30
0.0
 10
3972.614918594123
 20
3780.832892661904
 30
0.0
 10
3972.875130415247
 20
3781.861001454591
 30
0.0
  0
SPLINE
  5
24F
330
1F
100
AcDbEntity
  8
0
  6
Continuous
 62
     7
370
    25
100
AcDbSpline
210
0.0
220
0.0
230
1.0
 70
     8
 71
     3
 72
     9
 73
     5
 74
     0
 42
0.00000001
 43
0.0000000001
 40
0.0
 40
0.0
 40
0.0
 40
0.0
 40
0.4999949075900287
 40
1.0
 40
1.0
 40
1.0
 40
1.0
 10
4006.841012898131
 20
3775.578930710316
 30
0.0
 10
4006.831114966193
 20
3776.644845242205
 30
0.0
 10
4006.811318900697
 20
3778.776696018499
 30
0.0
 10
4006.290900558812
 20
3780.832892661898
 30
0.0
 10
4006.030688737685
 20
3781.861001454594
 30
0.0
  0
LINE
  5
250
330
1F
100
AcDbEntity
  8
0
  6
Continuous
 62
     7
370
    25
100
AcDbLine
 10
4006.842691996555
 20
3775.578914285713
 30
0.0
 11
4006.431919039947
 21
3775.578914285713
 31
0.0
  0
SPLINE
  5
251
330
1F
100
AcDbEntity
  8
0
  6
Continuous
 62
     7
370
    25
100
AcDbSpline
210
0.0
220
0.0
230
1.0
 70
    24
 71
     3
 72
     9
 73
     5
 74
     0
 42
0.00000001
 43
0.0000000001
 40
0.0
 40
0.0
 40
0.0
 40
0.0
 40
0.5000000000000595
 40
1.0
 40
1.0
 40
1.0
 40
1.0
 10
4003.7718218989
 20
3775.578914285713
 30
0.0
 10
4004.357478348769
 20
3775.578914285713
 30
0.0
 10
4005.528791248504
 20
3775.578914285713
 30
0.0
 10
4006.130876434675
 20
3775.578914285713
 30
0.0
 10
4006.43191902776
 20
3775.578914285713
 30
0.0
  0
SPLINE
  5
252
330
1F
100
AcDbEntity
  8
0
  6
Continuous
 62
     7
370
    25
100
AcDbSpline
210
0.0
220
0.0
230
1.0
 70
    24
 71
     3
 72
     9
 73
     5
 74
     0
 42
0.00000001
 43
0.0000000001
 40
0.0
 40
0.0
 40
0.0
 40
0.0
 40
0.5000000000000818
 40
1.0
 40
1.0
 40
1.0
 40
1.0
 10
3999.27097499997
 20
3775.578914285713
 30
0.0
 10
4000.105222599118
 20
3775.578914285713
 30
0.0
 10
4001.773717797415
 20
3775.578914285713
 30
0.0
 10
4003.105787198404
 20
3775.578914285713
 30
0.0
 10
4003.7718218989
 20
3775.578914285713
 30
0.0
  0
LINE
  5
253
330
1F
100
AcDbEntity
  8
0
  6
Continuous
 62
     7
370
    25
100
AcDbLine
 10
3996.656362947314
 20
3775.578914285713
 30
0.0
 11
3999.27097499997
 21
3775.578914285713
 31
0.0
  0
LINE
  5
254
330
1F
100
AcDbEntity
  8
0
  6
Continuous
 62
     7
370
    25
100
AcDbLine
 10
3972.063159655633
 20
3775.578914285713
 30
0.0
 11
3972.063159655633
 21
3770.808914285713
 31
0.0
  0
LINE
  5
255
330
1F
100
AcDbEntity
  8
0
  6
Continuous
 62
     7
370
    25
100
AcDbLine
 10
4006.842659497301
 20
3775.578914285713
 30
0.0
 11
4006.842659497301
 21
3770.808914285713
 31
0.0
  0
SPLINE
  5
256
330
1F
100
AcDbEntity
  8
0
  6
Continuous
 62
     7
370
    25
100
AcDbSpline
210
0.0
220
0.0
230
1.0
 70
    24
 71
     3
 72
     9
 73
     5
 74
     0
 42
0.00000001
 43
0.0000000001
 40
0.0
 40
0.0
 40
0.0
 40
0.0
 40
0.4999999999999828
 40
1.0
 40
1.0
 40
1.0
 40
1.0
 10
4008.401302936399
 20
3775.578914285713
 30
0.0
 10
4008.778335811949
 20
3775.578914285713
 30
0.0
 10
4009.532401563048
 20
3775.578914285713
 30
0.0
 10
4009.646073575205
 20
3775.578914285713
 30
0.0
 10
4009.702909581284
 20
3775.578914285713
 30
0.0
  0
LINE
  5
257
330
1F
100
AcDbEntity
  8
0
  6
Continuous
 62
     7
370
    25
100
AcDbLine
 10
4006.842922422992
 20
3775.578914285713
 30
0.0
 11
4008.401302936399
 21
3775.578914285713
 31
0.0
  0
LINE
  5
258
330
1F
100
AcDbEntity
  8
0
  6
Continuous
 62
     7
370
    25
100
AcDbLine
 10
3972.06391918803
 20
3775.578914285713
 30
0.0
 11
3970.50451623764
 21
3775.578914285713
 31
0.0
  0
SPLINE
  5
259
330
1F
100
AcDbEntity
  8
0
  6
Continuous
 62
     7
370
    25
100
AcDbSpline
210
0.0
220
0.0
230
1.0
 70
    24
 71
     3
 72
     9
 73
     5
 74
     0
 42
0.00000001
 43
0.0000000001
 40
0.0
 40
0.0
 40
0.0
 40
0.0
 40
0.5000000000000187
 40
1.0
 40
1.0
 40
1.0
 40
1.0
 10
3969.202909571649
 20
3775.578914285713
 30
0.0
 10
3969.259745577728
 20
3775.578914285713
 30
0.0
 10
3969.373417589885
 20
3775.578914285714
 30
0.0
 10
3970.127483340984
 20
3775.578914285713
 30
0.0
 10
3970.504516216534
 20
3775.578914285713
 30
0.0
  0
LINE
  5
25A
330
1F
100
AcDbEntity
  8
0
  6
Continuous
 62
     7
370
    25
100
AcDbLine
 10
4003.327909576466
 20
3790.058914285712
 30
0.0
 11
3975.577909576467
 21
3790.058914285709
 31
0.0
  0
LINE
  5
25B
330
1F
100
AcDbEntity
  8
0
  6
Continuous
 62
     7
370
    25
100
AcDbLine
 10
3610.571181076399
 20
3775.578914285713
 30
0.0
 11
3610.571181076399
 21
3770.808914285713
 31
0.0
  0
LINE
  5
25C
330
1F
100
AcDbEntity
  8
0
  6
Continuous
 62
     7
370
    25
100
AcDbLine
 10
3610.571459951921
 20
3775.578914285713
 30
0.0
 11
3612.710699258137
 21
3775.578914285713
 31
0.0
  0
SPLINE
  5
25D
330
1F
100
AcDbEntity
  8
0
  6
Continuous
 62
     7
370
    25
100
AcDbSpline
210
0.0
220
0.0
230
1.0
 70
    24
 71
     3
 72
     9
 73
     5
 74
     0
 42
0.00000001
 43
0.0000000001
 40
0.0
 40
0.0
 40
0.0
 40
0.0
 40
0.4999999999999912
 40
1.0
 40
1.0
 40
1.0
 40
1.0
 10
3612.710699258137
 20
3775.578914285713
 30
0.0
 10
3613.51347065168
 20
3775.578914285713
 30
0.0
 10
3615.119013438766
 20
3775.578914285713
 30
0.0
 10
3616.889172039512
 20
3775.578914285713
 30
0.0
 10
3617.774251339885
 20
3775.578914285713
 30
0.0
  0
SPLINE
  5
25E
330
1F
100
AcDbEntity
  8
0
  6
Continuous
 62
     7
370
    25
100
AcDbSpline
210
0.0
220
0.0
230
1.0
 70
    24
 71
     3
 72
     9
 73
     5
 74
     0
 42
0.00000001
 43
0.0000000001
 40
0.0
 40
0.0
 40
0.0
 40
0.0
 40
0.5000000000000139
 40
0.9999999999999998
 40
0.9999999999999998
 40
0.9999999999999998
 40
0.9999999999999998
 10
3617.774251339885
 20
3775.578914285713
 30
0.0
 10
3618.659330640259
 20
3775.578914285713
 30
0.0
 10
3620.429489241005
 20
3775.578914285713
 30
0.0
 10
3622.035032028091
 20
3775.578914285713
 30
0.0
 10
3622.837803421634
 20
3775.578914285713
 30
0.0
  0
LINE
  5
25F
330
1F
100
AcDbEntity
  8
0
  6
Continuous
 62
     7
370
    25
100
AcDbLine
 10
3624.978127096655
 20
3775.578914285713
 30
0.0
 11
3622.837803459975
 21
3775.578914285713
 31
0.0
  0
LINE
  5
260
330
1F
100
AcDbEntity
  8
0
  6
Continuous
 62
     7
370
    25
100
AcDbLine
 10
3624.977321603371
 20
3775.578914285713
 30
0.0
 11
3624.977321603371
 21
3770.808914285713
 31
0.0
  0
SPLINE
  5
261
330
1F
100
AcDbEntity
  8
0
  6
Continuous
 62
     7
370
    25
100
AcDbSpline
210
0.0
220
0.0
230
1.0
 70
     8
 71
     3
 72
    17
 73
    13
 74
     0
 42
0.00000001
 43
0.0000000001
 40
0.0
 40
0.0
 40
0.0
 40
0.0
 40
0.124907809997779
 40
0.2500010586774599
 40
0.3749594299785913
 40
0.4378148567262043
 40
0.5005386108003018
 40
0.5631656794732587
 40
0.6258373261239641
 40
0.7507197472891589
 40
0.8751986430798545
 40
1.0
 40
1.0
 40
1.0
 40
1.0
 10
3624.640992302488
 20
3781.86100145459
 30
0.0
 10
3624.387871841856
 20
3782.729251683927
 30
0.0
 10
3623.881255136847
 20
3784.467041150695
 30
0.0
 10
3622.463493579998
 20
3786.776956523658
 30
0.0
 10
3620.812791758734
 20
3788.355072031122
 30
0.0
 10
3619.155787694186
 20
3789.152375608054
 30
0.0
 10
3617.762581004861
 20
3789.385801430713
 30
0.0
 10
3616.372487159103
 20
3789.145234177196
 30
0.0
 10
3614.721121744038
 20
3788.343788676933
 30
0.0
 10
3613.078305455371
 20
3786.767174829261
 30
0.0
 10
3611.665404462413
 20
3784.461350205209
 30
0.0
 10
3611.160359509105
 20
3782.728531544786
 30
0.0
 10
3610.907510377284
 20
3781.861001454594
 30
0.0
  0
SPLINE
  5
262
330
1F
100
AcDbEntity
  8
0
  6
Continuous
 62
     7
370
    25
100
AcDbSpline
210
0.0
220
0.0
230
1.0
 70
     8
 71
     3
 72
     9
 73
     5
 74
     0
 42
0.00000001
 43
0.0000000001
 40
0.0
 40
0.0
 40
0.0
 40
0.0
 40
0.4999949075899803
 40
1.0
 40
1.0
 40
1.0
 40
1.0
 10
3624.976639559664
 20
3775.578930710372
 30
0.0
 10
3624.972539702012
 20
3776.64484524225
 30
0.0
 10
3624.964339903196
 20
3778.776696018524
 30
0.0
 10
3624.748775567885
 20
3780.832892661904
 30
0.0
 10
3624.640992302487
 20
3781.86100145459
 30
0.0
  0
SPLINE
  5
263
330
1F
100
AcDbEntity
  8
0
  6
Continuous
 62
     7
370
    25
100
AcDbSpline
210
0.0
220
0.0
230
1.0
 70
     8
 71
     3
 72
     9
 73
     5
 74
     0
 42
0.00000001
 43
0.0000000001
 40
0.0
 40
0.0
 40
0.0
 40
0.0
 40
0.4999949075900284
 40
1.0
 40
1.0
 40
1.0
 40
1.0
 10
3610.571863120107
 20
3775.578930710316
 30
0.0
 10
3610.575962977758
 20
3776.644845242205
 30
0.0
 10
3610.584162776574
 20
3778.776696018499
 30
0.0
 10
3610.799727111885
 20
3780.832892661898
 30
0.0
 10
3610.907510377284
 20
3781.861001454594
 30
0.0
  0
SPLINE
  5
264
330
1F
100
AcDbEntity
  8
0
  6
Continuous
 62
     7
370
    25
100
AcDbSpline
210
0.0
220
0.0
230
1.0
 70
     8
 71
     3
 72
    13
 73
     9
 74
     0
 42
0.00000001
 43
0.0000000001
 40
0.0
 40
0.0
 40
0.0
 40
0.0
 40
0.0013863088668596
 40
0.1266016900048088
 40
0.2519061995116258
 40
0.5015937594594467
 40
0.7504745183763978
 40
1.0
 40
1.0
 40
1.0
 40
1.0
 10
3632.145756249027
 20
3789.304458797191
 30
0.0
 10
3632.145422370139
 20
3789.305259805298
 30
0.0
 10
3632.114931595384
 20
3789.378410156136
 30
0.0
 10
3632.227459213351
 20
3789.112917866435
 30
0.0
 10
3632.528665944914
 20
3788.362373797689
 30
0.0
 10
3633.099961307638
 20
3786.760921415714
 30
0.0
 10
3633.777652116247
 20
3784.462916169668
 30
0.0
 10
3634.160406000005
 20
3782.729053982897
 30
0.0
 10
3634.352030501104
 20
3781.861001454596
 30
0.0
  0
SPLINE
  5
265
330
1F
100
AcDbEntity
  8
0
  6
Continuous
 62
     7
370
    25
100
AcDbSpline
210
0.0
220
0.0
230
1.0
 70
     8
 71
     3
 72
    17
 73
    13
 74
     0
 42
0.00000001
 43
0.0000000001
 40
0.0
 40
0.0
 40
0.0
 40
0.0
 40
0.1249078099977219
 40
0.2500010586774026
 40
0.374959429978507
 40
0.4378148567261249
 40
0.5005386108002346
 40
0.5631656794731842
 40
0.6258373261238885
 40
0.7507197472890627
 40
0.8751986430798114
 40
1.0
 40
1.0
 40
1.0
 40
1.0
 10
3634.352030501104
 20
3781.861001454596
 30
0.0
 10
3634.037579657526
 20
3782.729251683932
 30
0.0
 10
3633.40821113527
 20
3784.467041150696
 30
0.0
 10
3631.922956015892
 20
3786.776956523666
 30
0.0
 10
3630.358233752931
 20
3788.355072031129
 30
0.0
 10
3628.959469602565
 20
3789.152375608054
 30
0.0
 10
3627.903555613316
 20
3789.385801430713
 30
0.0
 10
3626.993492992849
 20
3789.145234177193
 30
0.0
 10
3626.053785818495
 20
3788.343788676936
 30
0.0
 10
3625.288786904604
 20
3786.767174829265
 30
0.0
 10
3624.771218943255
 20
3784.461350205204
 30
0.0
 10
3624.684438601521
 20
3782.728531544782
 30
0.0
 10
3624.640992302487
 20
3781.86100145459
 30
0.0
  0
SPLINE
  5
266
330
1F
100
AcDbEntity
  8
0
  6
Continuous
 62
     7
370
    25
100
AcDbSpline
210
0.0
220
0.0
230
1.0
 70
     8
 71
     3
 72
    17
 73
    13
 74
     0
 42
0.00000001
 43
0.0000000001
 40
0.0
 40
0.0
 40
0.0
 40
0.0
 40
0.1249078099977259
 40
0.250001058677408
 40
0.3749594299785152
 40
0.4378148567261441
 40
0.5005386108002444
 40
0.5631656794731992
 40
0.6258373261239063
 40
0.7507197472890815
 40
0.8751986430798211
 40
1.0
 40
1.0
 40
1.0
 40
1.0
 10
3610.907510377284
 20
3781.861001454594
 30
0.0
 10
3610.863994832517
 20
3782.72925168393
 30
0.0
 10
3610.776899139613
 20
3784.467041150696
 30
0.0
 10
3610.257136637113
 20
3786.77695652367
 30
0.0
 10
3609.487413996991
 20
3788.35507203113
 30
0.0
 10
3608.542820526362
 20
3789.152375608054
 30
0.0
 10
3607.628442720376
 20
3789.385801430714
 30
0.0
 10
3606.572615771202
 20
3789.145234177191
 30
0.0
 10
3605.176939579132
 20
3788.343788676932
 30
0.0
 10
3603.618645417094
 20
3786.76717482926
 30
0.0
 10
3602.138069631935
 20
3784.461350205199
 30
0.0
 10
3601.51060855109
 20
3782.728531544773
 30
0.0
 10
3601.196472178664
 20
3781.861001454581
 30
0.0
  0
SPLINE
  5
267
330
1F
100
AcDbEntity
  8
0
  6
Continuous
 62
     7
370
    25
100
AcDbSpline
210
0.0
220
0.0
230
1.0
 70
     8
 71
     3
 72
    12
 73
     8
 74
     0
 42
0.00000001
 43
0.0000000001
 40
0.0
 40
0.0
 40
0.0
 40
0.0
 40
0.2499361792671179
 40
0.5002434148808526
 40
0.7502807655557344
 40
0.8760522862299405
 40
1.0
 40
1.0
 40
1.0
 40
1.0
 10
3601.196472178664
 20
3781.86100145458
 30
0.0
 10
3601.387905320978
 20
3782.728907962152
 30
0.0
 10
3601.771055808087
 20
3784.466009475102
 30
0.0
 10
3602.455971210845
 20
3786.781088517188
 30
0.0
 10
3603.011121798191
 20
3788.34284355259
 30
0.0
 10
3603.345571490122
 20
3789.171097126399
 30
0.0
 10
3603.383698574218
 20
3789.260023778741
 30
0.0
 10
3603.402622887025
 20
3789.304162370131
 30
0.0
  0
LINE
  5
268
330
1F
100
AcDbEntity
  8
0
  6
Continuous
 62
     7
370
    25
100
AcDbLine
 10
3617.774251339885
 20
3789.806854365591
 30
0.0
 11
3603.773922844306
 21
3789.806854365591
 31
0.0
  0
LINE
  5
269
330
1F
100
AcDbEntity
  8
0
  6
Continuous
 62
     7
370
    25
100
AcDbLine
 10
3631.774579835465
 20
3789.806854365591
 30
0.0
 11
3617.774251339885
 21
3789.806854365591
 31
0.0
  0
LINE
  5
26A
330
1F
100
AcDbEntity
  8
0
  6
Continuous
 62
     7
370
    25
100
AcDbLine
 10
3610.57228771667
 20
3775.578914285713
 30
0.0
 11
3607.956185958418
 21
3775.578914285713
 31
0.0
  0
SPLINE
  5
26B
330
1F
100
AcDbEntity
  8
0
  6
Continuous
 62
     7
370
    25
100
AcDbSpline
210
0.0
220
0.0
230
1.0
 70
    24
 71
     3
 72
     9
 73
     5
 74
     0
 42
0.00000001
 43
0.0000000001
 40
0.0
 40
0.0
 40
0.0
 40
0.0
 40
0.4999999999999229
 40
1.0
 40
1.0
 40
1.0
 40
1.0
 10
3603.455339017451
 20
3775.578914285713
 30
0.0
 10
3604.121373717946
 20
3775.578914285713
 30
0.0
 10
3605.453443118938
 20
3775.578914285713
 30
0.0
 10
3607.121938317234
 20
3775.578914285713
 30
0.0
 10
3607.956185916382
 20
3775.578914285713
 30
0.0
  0
SPLINE
  5
26C
330
1F
100
AcDbEntity
  8
0
  6
Continuous
 62
     7
370
    25
100
AcDbSpline
210
0.0
220
0.0
230
1.0
 70
    24
 71
     3
 72
     9
 73
     5
 74
     0
 42
0.00000001
 43
0.0000000001
 40
0.0
 40
0.0
 40
0.0
 40
0.0
 40
0.4999999999999461
 40
1.0
 40
1.0
 40
1.0
 40
1.0
 10
3600.795241888591
 20
3775.578914285713
 30
0.0
 10
3601.096284481677
 20
3775.578914285713
 30
0.0
 10
3601.698369667847
 20
3775.578914285713
 30
0.0
 10
3602.869682567582
 20
3775.578914285713
 30
0.0
 10
3603.455339017451
 20
3775.578914285713
 30
0.0
  0
LINE
  5
26D
330
1F
100
AcDbEntity
  8
0
  6
Continuous
 62
     7
370
    25
100
AcDbLine
 10
3600.384512697168
 20
3775.578914285713
 30
0.0
 11
3600.795241888591
 21
3775.578914285713
 31
0.0
  0
SPLINE
  5
26E
330
1F
100
AcDbEntity
  8
0
  6
Continuous
 62
     7
370
    25
100
AcDbSpline
210
0.0
220
0.0
230
1.0
 70
     8
 71
     3
 72
     9
 73
     5
 74
     0
 42
0.00000001
 43
0.0000000001
 40
0.0
 40
0.0
 40
0.0
 40
0.0
 40
0.499994907589996
 40
1.0
 40
1.0
 40
1.0
 40
1.0
 10
3600.386148018219
 20
3775.578930710372
 30
0.0
 10
3600.396045950161
 20
3776.644845242248
 30
0.0
 10
3600.415842015662
 20
3778.776696018518
 30
0.0
 10
3600.936260357541
 20
3780.832892661896
 30
0.0
 10
3601.196472178663
 20
3781.86100145458
 30
0.0
  0
SPLINE
  5
26F
330
1F
100
AcDbEntity
  8
0
  6
Continuous
 62
     7
370
    25
100
AcDbSpline
210
0.0
220
0.0
230
1.0
 70
     8
 71
     3
 72
     9
 73
     5
 74
     0
 42
0.00000001
 43
0.0000000001
 40
0.0
 40
0.0
 40
0.0
 40
0.0
 40
0.4999949075939585
 40
1.0
 40
1.0
 40
1.0
 40
1.0
 10
3635.162354661454
 20
3775.578930706848
 30
0.0
 10
3635.152456729665
 20
3776.644845239331
 30
0.0
 10
3635.132660664466
 20
3778.776696016796
 30
0.0
 10
3634.612242322346
 20
3780.832892661337
 30
0.0
 10
3634.352030501104
 20
3781.861001454596
 30
0.0
  0
LINE
  5
270
330
1F
100
AcDbEntity
  8
0
  6
Continuous
 62
     7
370
    25
100
AcDbLine
 10
3635.164038061456
 20
3775.578914285713
 30
0.0
 11
3634.753260803372
 21
3775.578914285713
 31
0.0
  0
SPLINE
  5
271
330
1F
100
AcDbEntity
  8
0
  6
Continuous
 62
     7
370
    25
100
AcDbSpline
210
0.0
220
0.0
230
1.0
 70
    24
 71
     3
 72
     9
 73
     5
 74
     0
 42
0.00000001
 43
0.0000000001
 40
0.0
 40
0.0
 40
0.0
 40
0.0
 40
0.500000000000055
 40
1.0
 40
1.0
 40
1.0
 40
1.0
 10
3632.093163662319
 20
3775.578914285713
 30
0.0
 10
3632.678820112187
 20
3775.578914285713
 30
0.0
 10
3633.850133011924
 20
3775.578914285713
 30
0.0
 10
3634.452218198094
 20
3775.578914285713
 30
0.0
 10
3634.753260791179
 20
3775.578914285713
 30
0.0
  0
SPLINE
  5
272
330
1F
100
AcDbEntity
  8
0
  6
Continuous
 62
     7
370
    25
100
AcDbSpline
210
0.0
220
0.0
230
1.0
 70
    24
 71
     3
 72
     9
 73
     5
 74
     0
 42
0.00000001
 43
0.0000000001
 40
0.0
 40
0.0
 40
0.0
 40
0.0
 40
0.5000000000000795
 40
1.0
 40
1.0
 40
1.0
 40
1.0
 10
3627.592316763388
 20
3775.578914285713
 30
0.0
 10
3628.426564362536
 20
3775.578914285713
 30
0.0
 10
3630.095059560833
 20
3775.578914285713
 30
0.0
 10
3631.427128961824
 20
3775.578914285713
 30
0.0
 10
3632.093163662319
 20
3775.578914285713
 30
0.0
  0
LINE
  5
273
330
1F
100
AcDbEntity
  8
0
  6
Continuous
 62
     7
370
    25
100
AcDbLine
 10
3624.977704710732
 20
3775.578914285713
 30
0.0
 11
3627.592316763388
 21
3775.578914285713
 31
0.0
  0
LINE
  5
274
330
1F
100
AcDbEntity
  8
0
  6
Continuous
 62
     7
370
    25
100
AcDbLine
 10
3600.384501419051
 20
3775.578914285713
 30
0.0
 11
3600.384501419051
 21
3770.808914285713
 31
0.0
  0
LINE
  5
275
330
1F
100
AcDbEntity
  8
0
  6
Continuous
 62
     7
370
    25
100
AcDbLine
 10
3635.16400126072
 20
3775.578914285713
 30
0.0
 11
3635.16400126072
 21
3770.808914285713
 31
0.0
  0
LINE
  5
276
330
1F
100
AcDbEntity
  8
0
  6
Continuous
 62
     7
370
    25
100
AcDbLine
 10
3600.385260951448
 20
3775.578914285713
 30
0.0
 11
3598.825858001059
 21
3775.578914285713
 31
0.0
  0
SPLINE
  5
277
330
1F
100
AcDbEntity
  8
0
  6
Continuous
 62
     7
370
    25
100
AcDbSpline
210
0.0
220
0.0
230
1.0
 70
    24
 71
     3
 72
     9
 73
     5
 74
     0
 42
0.00000001
 43
0.0000000001
 40
0.0
 40
0.0
 40
0.0
 40
0.0
 40
0.500000000000019
 40
0.9999999999999998
 40
0.9999999999999998
 40
0.9999999999999998
 40
0.9999999999999998
 10
3597.524251335068
 20
3775.578914285713
 30
0.0
 10
3597.581087341146
 20
3775.578914285713
 30
0.0
 10
3597.694759353303
 20
3775.578914285713
 30
0.0
 10
3598.448825104402
 20
3775.578914285713
 30
0.0
 10
3598.825857979953
 20
3775.578914285713
 30
0.0
  0
SPLINE
  5
278
330
1F
100
AcDbEntity
  8
0
  6
Continuous
 62
     7
370
    25
100
AcDbSpline
210
0.0
220
0.0
230
1.0
 70
    24
 71
     3
 72
    11
 73
     7
 74
     0
 42
0.00000001
 43
0.0000000001
 40
0.0
 40
0.0
 40
0.0
 40
0.0
 40
0.2499287735814659
 40
0.4999525157209934
 40
0.7499762578605209
 40
1.0
 40
1.0
 40
1.0
 40
1.0
 10
3638.024180372883
 20
3775.578914285713
 30
0.0
 10
3637.988318758373
 20
3775.578914285713
 30
0.0
 10
3637.916581902565
 20
3775.578914285713
 30
0.0
 10
3637.334026509017
 20
3775.578914285713
 30
0.0
 10
3636.448296032114
 20
3775.578914285713
 30
0.0
 10
3635.592956945504
 20
3775.578914285713
 30
0.0
 10
3635.165287402199
 20
3775.578914285713
 30
0.0
  0
LINE
  5
279
330
1F
100
AcDbEntity
  8
0
  6
Continuous
 62
     7
370
    25
100
AcDbLine
 10
3617.774251339885
 20
3790.058914285712
 30
0.0
 11
3603.899251339885
 21
3790.05891428571
 31
0.0
  0
LINE
  5
27A
330
1F
100
AcDbEntity
  8
0
  6
Continuous
 62
     7
370
    25
100
AcDbLine
 10
3631.649251339885
 20
3790.05891428571
 30
0.0
 11
3617.774251339885
 21
3790.058914285712
 31
0.0
  0
LINE
  5
27B
330
1F
100
AcDbEntity
  8
0
  6
Continuous
 62
     7
370
    25
100
AcDbLine
 10
4029.050000100117
 20
3775.578914285713
 30
0.0
 11
4029.050000100117
 21
3772.808914285714
 31
0.0
  0
LINE
  5
27C
330
1F
100
AcDbEntity
  8
0
  6
Continuous
 62
     7
370
    25
100
AcDbLine
 10
4029.050278975638
 20
3775.578914285713
 30
0.0
 11
4031.189518281855
 21
3775.578914285713
 31
0.0
  0
SPLINE
  5
27D
330
1F
100
AcDbEntity
  8
0
  6
Continuous
 62
     7
370
    25
100
AcDbSpline
210
0.0
220
0.0
230
1.0
 70
    24
 71
     3
 72
     9
 73
     5
 74
     0
 42
0.00000001
 43
0.0000000001
 40
0.0
 40
0.0
 40
0.0
 40
0.0
 40
0.5000000000000015
 40
1.0
 40
1.0
 40
1.0
 40
1.0
 10
4031.189518281855
 20
3775.578914285713
 30
0.0
 10
4031.992289675398
 20
3775.578914285713
 30
0.0
 10
4033.597832462483
 20
3775.578914285714
 30
0.0
 10
4035.367991063229
 20
3775.578914285713
 30
0.0
 10
4036.253070363603
 20
3775.578914285713
 30
0.0
  0
SPLINE
  5
27E
330
1F
100
AcDbEntity
  8
0
  6
Continuous
 62
     7
370
    25
100
AcDbSpline
210
0.0
220
0.0
230
1.0
 70
    24
 71
     3
 72
     9
 73
     5
 74
     0
 42
0.00000001
 43
0.0000000001
 40
0.0
 40
0.0
 40
0.0
 40
0.0
 40
0.499999999999985
 40
1.0
 40
1.0
 40
1.0
 40
1.0
 10
4036.253070363603
 20
3775.578914285713
 30
0.0
 10
4037.138149663976
 20
3775.578914285713
 30
0.0
 10
4038.908308264722
 20
3775.578914285713
 30
0.0
 10
4040.513851051808
 20
3775.578914285713
 30
0.0
 10
4041.316622445351
 20
3775.578914285713
 30
0.0
  0
LINE
  5
27F
330
1F
100
AcDbEntity
  8
0
  6
Continuous
 62
     7
370
    25
100
AcDbLine
 10
4043.456946120372
 20
3775.578914285713
 30
0.0
 11
4041.316622483693
 21
3775.578914285713
 31
0.0
  0
LINE
  5
280
330
1F
100
AcDbEntity
  8
0
  6
Continuous
 62
     7
370
    25
100
AcDbLine
 10
4043.456140627089
 20
3775.578914285713
 30
0.0
 11
4043.456140627089
 21
3770.808914285714
 31
0.0
  0
SPLINE
  5
281
330
1F
100
AcDbEntity
  8
0
  6
Continuous
 62
     7
370
    25
100
AcDbSpline
210
0.0
220
0.0
230
1.0
 70
     8
 71
     3
 72
    17
 73
    13
 74
     0
 42
0.00000001
 43
0.0000000001
 40
0.0
 40
0.0
 40
0.0
 40
0.0
 40
0.124907809997776
 40
0.2500010586774522
 40
0.374959429978577
 40
0.437814856726196
 40
0.5005386108003026
 40
0.5631656794732555
 40
0.6258373261239619
 40
0.7507197472891517
 40
0.8751986430798528
 40
1.0
 40
1.0
 40
1.0
 40
1.0
 10
4043.119811326207
 20
3781.861001454581
 30
0.0
 10
4042.866690865579
 20
3782.729251683919
 30
0.0
 10
4042.360074160574
 20
3784.467041150689
 30
0.0
 10
4040.942312603723
 20
3786.776956523655
 30
0.0
 10
4039.291610782456
 20
3788.355072031118
 30
0.0
 10
4037.634606717909
 20
3789.152375608053
 30
0.0
 10
4036.241400028582
 20
3789.385801430713
 30
0.0
 10
4034.851306182824
 20
3789.145234177198
 30
0.0
 10
4033.199940767757
 20
3788.343788676934
 30
0.0
 10
4031.557124479089
 20
3786.767174829261
 30
0.0
 10
4030.14422348613
 20
3784.461350205207
 30
0.0
 10
4029.639178532823
 20
3782.728531544783
 30
0.0
 10
4029.386329401
 20
3781.86100145459
 30
0.0
  0
LINE
  5
282
330
1F
100
AcDbEntity
  8
0
  6
Continuous
 62
     7
370
    25
100
AcDbLine
 10
4043.455458583381
 20
3775.578930710372
 30
0.0
 11
4043.441775242238
 21
3776.257091890054
 31
0.0
  0
SPLINE
  5
283
330
1F
100
AcDbEntity
  8
0
  6
Continuous
 62
     7
370
    25
100
AcDbSpline
210
0.0
220
0.0
230
1.0
 70
     8
 71
     3
 72
     9
 73
     5
 74
     0
 42
0.00000001
 43
0.0000000001
 40
0.0
 40
0.0
 40
0.0
 40
0.0
 40
0.7104759191406746
 40
1.0
 40
1.0
 40
1.0
 40
1.0
 10
4043.413012216084
 20
3777.682618560962
 30
0.0
 10
4043.414085877521
 20
3778.044029304027
 30
0.0
 10
4043.415597063765
 20
3778.552717541484
 30
0.0
 10
4043.36775117569
 20
3779.043398521178
 30
0.0
 10
4043.353898638923
 20
3779.185462480819
 30
0.0
  0
SPLINE
  5
284
330
1F
100
AcDbEntity
  8
0
  6
Continuous
 62
     7
370
    25
100
AcDbSpline
210
0.0
220
0.0
230
1.0
 70
     8
 71
     3
 72
     9
 73
     5
 74
     0
 42
0.00000001
 43
0.0000000001
 40
0.0
 40
0.0
 40
0.0
 40
0.0
 40
0.4999949075900365
 40
1.0
 40
1.0
 40
1.0
 40
1.0
 10
4029.050682143824
 20
3775.578930710316
 30
0.0
 10
4029.054782001475
 20
3776.644845242204
 30
0.0
 10
4029.062981800289
 20
3778.776696018497
 30
0.0
 10
4029.278546135602
 20
3780.832892661895
 30
0.0
 10
4029.386329401
 20
3781.86100145459
 30
0.0
  0
SPLINE
  5
285
330
1F
100
AcDbEntity
  8
0
  6
Continuous
 62
     7
370
    25
100
AcDbSpline
210
0.0
220
0.0
230
1.0
 70
     8
 71
     3
 72
    17
 73
    13
 74
     0
 42
0.00000001
 43
0.0000000001
 40
0.0
 40
0.0
 40
0.0
 40
0.0
 40
0.124907809997715
 40
0.2500010586773933
 40
0.3749594299785008
 40
0.4378148567261295
 40
0.5005386108002324
 40
0.5631656794731801
 40
0.625837326123894
 40
0.7507197472890645
 40
0.8751986430798098
 40
0.9999999999999998
 40
0.9999999999999998
 40
0.9999999999999998
 40
0.9999999999999998
 10
4029.386329401001
 20
3781.86100145459
 30
0.0
 10
4029.342813856236
 20
3782.729251683927
 30
0.0
 10
4029.255718163336
 20
3784.467041150693
 30
0.0
 10
4028.735955660827
 20
3786.776956523663
 30
0.0
 10
4027.966233020711
 20
3788.355072031126
 30
0.0
 10
4027.021639550084
 20
3789.152375608052
 30
0.0
 10
4026.1072617441
 20
3789.385801430714
 30
0.0
 10
4025.051434794927
 20
3789.145234177194
 30
0.0
 10
4023.655758602857
 20
3788.343788676937
 30
0.0
 10
4022.097464440817
 20
3786.767174829266
 30
0.0
 10
4020.61688865566
 20
3784.461350205205
 30
0.0
 10
4019.989427574811
 20
3782.728531544782
 30
0.0
 10
4019.675291202383
 20
3781.861001454591
 30
0.0
  0
SPLINE
  5
286
330
1F
100
AcDbEntity
  8
0
  6
Continuous
 62
     7
370
    25
100
AcDbSpline
210
0.0
220
0.0
230
1.0
 70
     8
 71
     3
 72
    12
 73
     8
 74
     0
 42
0.00000001
 43
0.0000000001
 40
0.0
 40
0.0
 40
0.0
 40
0.0
 40
0.2499589306161125
 40
0.5003031747955247
 40
0.7503322143376647
 40
0.8760959971030043
 40
1.0
 40
1.0
 40
1.0
 40
1.0
 10
4019.675291202383
 20
3781.861001454591
 30
0.0
 10
4019.866742885106
 20
3782.728986022519
 30
0.0
 10
4020.249941374755
 20
3784.466293163085
 30
0.0
 10
4020.93491649629
 20
3786.781484460704
 30
0.0
 10
4021.49007131817
 20
3788.343183680261
 30
0.0
 10
4021.824426527599
 20
3789.171180533631
 30
0.0
 10
4021.862531723712
 20
3789.260056569603
 30
0.0
 10
4021.881442398621
 20
3789.304163567987
 30
0.0
  0
LINE
  5
287
330
1F
100
AcDbEntity
  8
0
  6
Continuous
 62
     7
370
    25
100
AcDbLine
 10
4043.114211312983
 20
3789.806854365591
 30
0.0
 11
4022.252741868023
 21
3789.806854365591
 31
0.0
  0
LINE
  5
288
330
1F
100
AcDbEntity
  8
0
  6
Continuous
 62
     7
370
    25
100
AcDbLine
 10
4029.051106740388
 20
3775.578914285713
 30
0.0
 11
4026.435004982135
 21
3775.578914285713
 31
0.0
  0
SPLINE
  5
289
330
1F
100
AcDbEntity
  8
0
  6
Continuous
 62
     7
370
    25
100
AcDbSpline
210
0.0
220
0.0
230
1.0
 70
    24
 71
     3
 72
     9
 73
     5
 74
     0
 42
0.00000001
 43
0.0000000001
 40
0.0
 40
0.0
 40
0.0
 40
0.0
 40
0.4999999999999767
 40
1.0
 40
1.0
 40
1.0
 40
1.0
 10
4021.934158041168
 20
3775.578914285713
 30
0.0
 10
4022.600192741664
 20
3775.578914285713
 30
0.0
 10
4023.932262142655
 20
3775.578914285713
 30
0.0
 10
4025.600757340952
 20
3775.578914285713
 30
0.0
 10
4026.4350049401
 20
3775.578914285713
 30
0.0
  0
SPLINE
  5
28A
330
1F
100
AcDbEntity
  8
0
  6
Continuous
 62
     7
370
    25
100
AcDbSpline
210
0.0
220
0.0
230
1.0
 70
    24
 71
     3
 72
     9
 73
     5
 74
     0
 42
0.00000001
 43
0.0000000001
 40
0.0
 40
0.0
 40
0.0
 40
0.0
 40
0.499999999999993
 40
1.0
 40
1.0
 40
1.0
 40
1.0
 10
4019.274060912309
 20
3775.578914285713
 30
0.0
 10
4019.575103505394
 20
3775.578914285714
 30
0.0
 10
4020.177188691564
 20
3775.578914285713
 30
0.0
 10
4021.3485015913
 20
3775.578914285713
 30
0.0
 10
4021.934158041168
 20
3775.578914285713
 30
0.0
  0
LINE
  5
28B
330
1F
100
AcDbEntity
  8
0
  6
Continuous
 62
     7
370
    25
100
AcDbLine
 10
4018.863331720885
 20
3775.578914285713
 30
0.0
 11
4019.274060912309
 21
3775.578914285713
 31
0.0
  0
SPLINE
  5
28C
330
1F
100
AcDbEntity
  8
0
  6
Continuous
 62
     7
370
    25
100
AcDbSpline
210
0.0
220
0.0
230
1.0
 70
     8
 71
     3
 72
     9
 73
     5
 74
     0
 42
0.00000001
 43
0.0000000001
 40
0.0
 40
0.0
 40
0.0
 40
0.0
 40
0.4999949075899793
 40
0.9999999999999998
 40
0.9999999999999998
 40
0.9999999999999998
 40
0.9999999999999998
 10
4018.864967041937
 20
3775.578930710372
 30
0.0
 10
4018.874864973877
 20
3776.64484524225
 30
0.0
 10
4018.894661039377
 20
3778.776696018525
 30
0.0
 10
4019.415079381259
 20
3780.832892661904
 30
0.0
 10
4019.675291202383
 20
3781.861001454591
 30
0.0
  0
LINE
  5
28D
330
1F
100
AcDbEntity
  8
0
  6
Continuous
 62
     7
370
    25
100
AcDbLine
 10
4043.45652373445
 20
3775.578914285713
 30
0.0
 11
4044.115062009598
 21
3775.578914285713
 31
0.0
  0
LINE
  5
28E
330
1F
100
AcDbEntity
  8
0
  6
Continuous
 62
     7
370
    25
100
AcDbLine
 10
4018.863320442767
 20
3775.578914285713
 30
0.0
 11
4018.863320442767
 21
3772.808914285714
 31
0.0
  0
LINE
  5
28F
330
1F
100
AcDbEntity
  8
0
  6
Continuous
 62
     7
370
    25
100
AcDbLine
 10
4018.864079975165
 20
3775.578914285713
 30
0.0
 11
4017.304677024776
 21
3775.578914285713
 31
0.0
  0
SPLINE
  5
290
330
1F
100
AcDbEntity
  8
0
  6
Continuous
 62
     7
370
    25
100
AcDbSpline
210
0.0
220
0.0
230
1.0
 70
    24
 71
     3
 72
     9
 73
     5
 74
     0
 42
0.00000001
 43
0.0000000001
 40
0.0
 40
0.0
 40
0.0
 40
0.0
 40
0.5000000000000086
 40
1.0
 40
1.0
 40
1.0
 40
1.0
 10
4016.003070358785
 20
3775.578914285713
 30
0.0
 10
4016.059906364864
 20
3775.578914285714
 30
0.0
 10
4016.173578377021
 20
3775.578914285714
 30
0.0
 10
4016.92764412812
 20
3775.578914285713
 30
0.0
 10
4017.304677003671
 20
3775.578914285713
 30
0.0
  0
LINE
  5
291
330
1F
100
AcDbEntity
  8
0
  6
Continuous
 62
     7
370
    25
100
AcDbLine
 10
4043.114211312983
 20
3790.058914285711
 30
0.0
 11
4022.378070363604
 21
3790.058914285709
 31
0.0
  0
LINE
  5
292
330
1F
100
AcDbEntity
  8
0
  6
Continuous
 62
     7
370
    25
100
AcDbLine
 10
3563.771172581594
 20
3775.578914285713
 30
0.0
 11
3563.771172581594
 21
3770.808914285714
 31
0.0
  0
LINE
  5
293
330
1F
100
AcDbEntity
  8
0
  6
Continuous
 62
     7
370
    25
100
AcDbLine
 10
3563.771451457117
 20
3775.578914285713
 30
0.0
 11
3565.910690763332
 21
3775.578914285713
 31
0.0
  0
SPLINE
  5
294
330
1F
100
AcDbEntity
  8
0
  6
Continuous
 62
     7
370
    25
100
AcDbSpline
210
0.0
220
0.0
230
1.0
 70
    24
 71
     3
 72
     9
 73
     5
 74
     0
 42
0.00000001
 43
0.0000000001
 40
0.0
 40
0.0
 40
0.0
 40
0.0
 40
0.500000000000024
 40
1.0
 40
1.0
 40
1.0
 40
1.0
 10
3565.910690763332
 20
3775.578914285713
 30
0.0
 10
3566.713462156875
 20
3775.578914285713
 30
0.0
 10
3568.319004943961
 20
3775.578914285713
 30
0.0
 10
3570.089163544707
 20
3775.578914285713
 30
0.0
 10
3570.97424284508
 20
3775.578914285713
 30
0.0
  0
SPLINE
  5
295
330
1F
100
AcDbEntity
  8
0
  6
Continuous
 62
     7
370
    25
100
AcDbSpline
210
0.0
220
0.0
230
1.0
 70
    24
 71
     3
 72
     9
 73
     5
 74
     0
 42
0.00000001
 43
0.0000000001
 40
0.0
 40
0.0
 40
0.0
 40
0.0
 40
0.5000000000000038
 40
1.0
 40
1.0
 40
1.0
 40
1.0
 10
3570.97424284508
 20
3775.578914285713
 30
0.0
 10
3571.859322145453
 20
3775.578914285713
 30
0.0
 10
3573.6294807462
 20
3775.578914285713
 30
0.0
 10
3575.235023533286
 20
3775.578914285713
 30
0.0
 10
3576.037794926828
 20
3775.578914285713
 30
0.0
  0
LINE
  5
296
330
1F
100
AcDbEntity
  8
0
  6
Continuous
 62
     7
370
    25
100
AcDbLine
 10
3578.17811860185
 20
3775.578914285713
 30
0.0
 11
3576.037794965169
 21
3775.578914285713
 31
0.0
  0
LINE
  5
297
330
1F
100
AcDbEntity
  8
0
  6
Continuous
 62
     7
370
    25
100
AcDbLine
 10
3578.177313108567
 20
3775.578914285713
 30
0.0
 11
3578.177313108567
 21
3772.808914285714
 31
0.0
  0
SPLINE
  5
298
330
1F
100
AcDbEntity
  8
0
  6
Continuous
 62
     7
370
    25
100
AcDbSpline
210
0.0
220
0.0
230
1.0
 70
     8
 71
     3
 72
    17
 73
    13
 74
     0
 42
0.00000001
 43
0.0000000001
 40
0.0
 40
0.0
 40
0.0
 40
0.0
 40
0.1249078099977703
 40
0.2500010586774513
 40
0.3749594299785834
 40
0.4378148567261963
 40
0.5005386108002983
 40
0.5631656794732524
 40
0.62583732612396
 40
0.7507197472891518
 40
0.8751986430798508
 40
1.0
 40
1.0
 40
1.0
 40
1.0
 10
3577.840983807683
 20
3781.86100145459
 30
0.0
 10
3577.587863347051
 20
3782.729251683927
 30
0.0
 10
3577.081246642042
 20
3784.467041150695
 30
0.0
 10
3575.663485085193
 20
3786.776956523658
 30
0.0
 10
3574.012783263928
 20
3788.355072031123
 30
0.0
 10
3572.35577919938
 20
3789.152375608054
 30
0.0
 10
3570.962572510055
 20
3789.385801430713
 30
0.0
 10
3569.572478664298
 20
3789.145234177196
 30
0.0
 10
3567.921113249233
 20
3788.343788676933
 30
0.0
 10
3566.278296960566
 20
3786.767174829261
 30
0.0
 10
3564.865395967607
 20
3784.461350205209
 30
0.0
 10
3564.360351014301
 20
3782.728531544786
 30
0.0
 10
3564.107501882479
 20
3781.861001454594
 30
0.0
  0
SPLINE
  5
299
330
1F
100
AcDbEntity
  8
0
  6
Continuous
 62
     7
370
    25
100
AcDbSpline
210
0.0
220
0.0
230
1.0
 70
     8
 71
     3
 72
     9
 73
     5
 74
     0
 42
0.00000001
 43
0.0000000001
 40
0.0
 40
0.0
 40
0.0
 40
0.0
 40
0.4999949075899823
 40
1.0
 40
1.0
 40
1.0
 40
1.0
 10
3578.176631064859
 20
3775.578930710372
 30
0.0
 10
3578.172531207207
 20
3776.64484524225
 30
0.0
 10
3578.16433140839
 20
3778.776696018524
 30
0.0
 10
3577.94876707308
 20
3780.832892661904
 30
0.0
 10
3577.840983807682
 20
3781.86100145459
 30
0.0
  0
SPLINE
  5
29A
330
1F
100
AcDbEntity
  8
0
  6
Continuous
 62
     7
370
    25
100
AcDbSpline
210
0.0
220
0.0
230
1.0
 70
     8
 71
     3
 72
     9
 73
     5
 74
     0
 42
0.00000001
 43
0.0000000001
 40
0.0
 40
0.0
 40
0.0
 40
0.0
 40
0.4999949075900371
 40
0.9999999999999998
 40
0.9999999999999998
 40
0.9999999999999998
 40
0.9999999999999998
 10
3563.771854625302
 20
3775.578930710316
 30
0.0
 10
3563.775954482953
 20
3776.644845242206
 30
0.0
 10
3563.784154281768
 20
3778.776696018499
 30
0.0
 10
3563.99971861708
 20
3780.832892661898
 30
0.0
 10
3564.107501882479
 20
3781.861001454594
 30
0.0
  0
SPLINE
  5
29B
330
1F
100
AcDbEntity
  8
0
  6
Continuous
 62
     7
370
    25
100
AcDbSpline
210
0.0
220
0.0
230
1.0
 70
     8
 71
     3
 72
    13
 73
     9
 74
     0
 42
0.00000001
 43
0.0000000001
 40
0.0
 40
0.0
 40
0.0
 40
0.0
 40
0.0013863088668295
 40
0.1266016900048083
 40
0.251906199511616
 40
0.5015937594594387
 40
0.7504745183763704
 40
1.0
 40
1.0
 40
1.0
 40
1.0
 10
3585.345747754221
 20
3789.304458797191
 30
0.0
 10
3585.345413875334
 20
3789.305259805298
 30
0.0
 10
3585.314923100578
 20
3789.378410156137
 30
0.0
 10
3585.427450718547
 20
3789.112917866435
 30
0.0
 10
3585.728657450108
 20
3788.362373797689
 30
0.0
 10
3586.299952812832
 20
3786.760921415714
 30
0.0
 10
3586.977643621442
 20
3784.462916169668
 30
0.0
 10
3587.360397505199
 20
3782.729053982897
 30
0.0
 10
3587.552022006298
 20
3781.861001454596
 30
0.0
  0
SPLINE
  5
29C
330
1F
100
AcDbEntity
  8
0
  6
Continuous
 62
     7
370
    25
100
AcDbSpline
210
0.0
220
0.0
230
1.0
 70
     8
 71
     3
 72
    17
 73
    13
 74
     0
 42
0.00000001
 43
0.0000000001
 40
0.0
 40
0.0
 40
0.0
 40
0.0
 40
0.1249078099977223
 40
0.2500010586774053
 40
0.3749594299785088
 40
0.4378148567261294
 40
0.5005386108002329
 40
0.5631656794731829
 40
0.6258373261238876
 40
0.7507197472890561
 40
0.8751986430798096
 40
1.0
 40
1.0
 40
1.0
 40
1.0
 10
3587.552022006299
 20
3781.861001454596
 30
0.0
 10
3587.237571162722
 20
3782.729251683932
 30
0.0
 10
3586.608202640466
 20
3784.467041150696
 30
0.0
 10
3585.122947521087
 20
3786.776956523666
 30
0.0
 10
3583.558225258127
 20
3788.355072031129
 30
0.0
 10
3582.159461107759
 20
3789.152375608054
 30
0.0
 10
3581.103547118511
 20
3789.385801430714
 30
0.0
 10
3580.193484498044
 20
3789.145234177193
 30
0.0
 10
3579.253777323691
 20
3788.343788676936
 30
0.0
 10
3578.488778409799
 20
3786.767174829265
 30
0.0
 10
3577.97121044845
 20
3784.461350205204
 30
0.0
 10
3577.884430106716
 20
3782.728531544782
 30
0.0
 10
3577.840983807682
 20
3781.86100145459
 30
0.0
  0
SPLINE
  5
29D
330
1F
100
AcDbEntity
  8
0
  6
Continuous
 62
     7
370
    25
100
AcDbSpline
210
0.0
220
0.0
230
1.0
 70
     8
 71
     3
 72
    10
 73
     6
 74
     0
 42
0.00000001
 43
0.0000000001
 40
0.0
 40
0.0
 40
0.0
 40
0.0
 40
0.4349832679248829
 40
0.8706123139150449
 40
0.9999999999999998
 40
0.9999999999999998
 40
0.9999999999999998
 40
0.9999999999999998
 10
3564.10750188248
 20
3781.861001454594
 30
0.0
 10
3564.056771146884
 20
3782.720275623633
 30
0.0
 10
3563.955234360618
 20
3784.440099643909
 30
0.0
 10
3563.640194583375
 20
3786.312372691885
 30
0.0
 10
3563.203177933066
 20
3787.07103859031
 30
0.0
 10
3563.103102006188
 20
3787.244771542869
 30
0.0
  0
LINE
  5
29E
330
1F
100
AcDbEntity
  8
0
  6
Continuous
 62
     7
370
    25
100
AcDbLine
 10
3570.97424284508
 20
3789.806854365591
 30
0.0
 11
3563.104004954711
 21
3789.806854365591
 31
0.0
  0
LINE
  5
29F
330
1F
100
AcDbEntity
  8
0
  6
Continuous
 62
     7
370
    25
100
AcDbLine
 10
3584.97457134066
 20
3789.806854365591
 30
0.0
 11
3570.97424284508
 21
3789.806854365591
 31
0.0
  0
SPLINE
  5
2A0
330
1F
100
AcDbEntity
  8
0
  6
Continuous
 62
     7
370
    25
100
AcDbSpline
210
0.0
220
0.0
230
1.0
 70
     8
 71
     3
 72
     9
 73
     5
 74
     0
 42
0.00000001
 43
0.0000000001
 40
0.0
 40
0.0
 40
0.0
 40
0.0
 40
0.4999949075939582
 40
1.0
 40
1.0
 40
1.0
 40
1.0
 10
3588.36234616665
 20
3775.578930706848
 30
0.0
 10
3588.35244823486
 20
3776.644845239331
 30
0.0
 10
3588.332652169662
 20
3778.776696016797
 30
0.0
 10
3587.81223382754
 20
3780.832892661337
 30
0.0
 10
3587.552022006298
 20
3781.861001454596
 30
0.0
  0
LINE
  5
2A1
330
1F
100
AcDbEntity
  8
0
  6
Continuous
 62
     7
370
    25
100
AcDbLine
 10
3588.364029566652
 20
3775.578914285713
 30
0.0
 11
3587.953252308567
 21
3775.578914285713
 31
0.0
  0
SPLINE
  5
2A2
330
1F
100
AcDbEntity
  8
0
  6
Continuous
 62
     7
370
    25
100
AcDbSpline
210
0.0
220
0.0
230
1.0
 70
    24
 71
     3
 72
     9
 73
     5
 74
     0
 42
0.00000001
 43
0.0000000001
 40
0.0
 40
0.0
 40
0.0
 40
0.0
 40
0.5000000000000258
 40
1.0
 40
1.0
 40
1.0
 40
1.0
 10
3585.293155167514
 20
3775.578914285713
 30
0.0
 10
3585.878811617383
 20
3775.578914285713
 30
0.0
 10
3587.050124517119
 20
3775.578914285714
 30
0.0
 10
3587.652209703288
 20
3775.578914285714
 30
0.0
 10
3587.953252296374
 20
3775.578914285713
 30
0.0
  0
SPLINE
  5
2A3
330
1F
100
AcDbEntity
  8
0
  6
Continuous
 62
     7
370
    25
100
AcDbSpline
210
0.0
220
0.0
230
1.0
 70
    24
 71
     3
 72
     9
 73
     5
 74
     0
 42
0.00000001
 43
0.0000000001
 40
0.0
 40
0.0
 40
0.0
 40
0.0
 40
0.5000000000000388
 40
1.0
 40
1.0
 40
1.0
 40
1.0
 10
3580.792308268583
 20
3775.578914285713
 30
0.0
 10
3581.626555867732
 20
3775.578914285713
 30
0.0
 10
3583.295051066027
 20
3775.578914285713
 30
0.0
 10
3584.627120467019
 20
3775.578914285713
 30
0.0
 10
3585.293155167514
 20
3775.578914285713
 30
0.0
  0
LINE
  5
2A4
330
1F
100
AcDbEntity
  8
0
  6
Continuous
 62
     7
370
    25
100
AcDbLine
 10
3578.177696215926
 20
3775.578914285713
 30
0.0
 11
3580.792308268583
 21
3775.578914285713
 31
0.0
  0
LINE
  5
2A5
330
1F
100
AcDbEntity
  8
0
  6
Continuous
 62
     7
370
    25
100
AcDbLine
 10
3563.772279221865
 20
3775.578914285713
 30
0.0
 11
3562.119723623054
 21
3775.578914285713
 31
0.0
  0
LINE
  5
2A6
330
1F
100
AcDbEntity
  8
0
  6
Continuous
 62
     7
370
    25
100
AcDbLine
 10
3553.584492924245
 20
3770.810196192112
 30
0.0
 11
3553.584492924245
 21
3770.808914285714
 31
0.0
  0
LINE
  5
2A7
330
1F
100
AcDbEntity
  8
0
  6
Continuous
 62
     7
370
    25
100
AcDbLine
 10
3588.363992765915
 20
3775.578914285713
 30
0.0
 11
3588.363992765915
 21
3772.808914285714
 31
0.0
  0
SPLINE
  5
2A8
330
1F
100
AcDbEntity
  8
0
  6
Continuous
 62
     7
370
    25
100
AcDbSpline
210
0.0
220
0.0
230
1.0
 70
    24
 71
     3
 72
    11
 73
     7
 74
     0
 42
0.00000001
 43
0.0000000001
 40
0.0
 40
0.0
 40
0.0
 40
0.0
 40
0.2499287735814583
 40
0.499952515720978
 40
0.7499762578604977
 40
1.0
 40
1.0
 40
1.0
 40
1.0
 10
3591.224171878078
 20
3775.578914285714
 30
0.0
 10
3591.188310263567
 20
3775.578914285714
 30
0.0
 10
3591.11657340776
 20
3775.578914285714
 30
0.0
 10
3590.534018014212
 20
3775.578914285713
 30
0.0
 10
3589.648287537309
 20
3775.578914285714
 30
0.0
 10
3588.792948450699
 20
3775.578914285714
 30
0.0
 10
3588.365278907394
 20
3775.578914285713
 30
0.0
  0
LINE
  5
2A9
330
1F
100
AcDbEntity
  8
0
  6
Continuous
 62
     7
370
    25
100
AcDbLine
 10
3570.97424284508
 20
3790.058914285712
 30
0.0
 11
3563.104093787567
 21
3790.058914285712
 31
0.0
  0
LINE
  5
2AA
330
1F
100
AcDbEntity
  8
0
  6
Continuous
 62
     7
370
    25
100
AcDbLine
 10
3584.84924284508
 20
3790.05891428571
 30
0.0
 11
3570.97424284508
 21
3790.058914285712
 31
0.0
  0
LINE
  5
2AB
330
1F
100
AcDbEntity
  8
0
  6
Continuous
 62
     7
370
    25
100
AcDbLine
 10
3553.097657691489
 20
3771.798493389094
 30
0.0
 11
3503.097660796617
 21
3771.816114764552
 31
0.0
  0
LINE
  5
2AC
330
1F
100
AcDbEntity
  8
0
  6
Continuous
 62
     7
370
    25
100
AcDbLine
 10
3553.09730526398
 20
3770.798493451195
 30
0.0
 11
3553.097657691489
 21
3771.798493389094
 31
0.0
  0
LINE
  5
2AD
330
1F
100
AcDbEntity
  8
0
  6
Continuous
 62
     7
370
    25
100
AcDbLine
 10
3503.097308369107
 20
3770.816114826655
 30
0.0
 11
3553.09730526398
 21
3770.798493451195
 31
0.0
  0
LINE
  5
2AE
330
1F
100
AcDbEntity
  8
0
  6
Continuous
 62
     7
370
    25
100
AcDbLine
 10
3503.097308369107
 20
3770.816114826655
 30
0.0
 11
3503.097660796617
 21
3771.816114764552
 31
0.0
  0
ARC
  5
2AF
330
1F
100
AcDbEntity
  8
0
  6
Continuous
 62
     7
370
    25
100
AcDbCircle
 10
3503.118454019657
 20
3830.8161111005
 30
0.0
 40
9.999999999999591
100
AcDbArc
 50
89.97980739072124
 51
179.9798073907238
  0
LINE
  5
2B0
330
1F
100
AcDbEntity
  8
0
  6
Continuous
 62
     7
370
    25
100
AcDbLine
 10
3503.121625867239
 20
3839.816110541576
 30
0.0
 11
3503.121978294749
 21
3840.816110479474
 31
0.0
  0
ARC
  5
2B1
330
1F
100
AcDbEntity
  8
0
  6
Continuous
 62
     7
370
    25
100
AcDbCircle
 10
3503.118454019657
 20
3830.8161111005
 30
0.0
 40
8.999999999999586
100
AcDbArc
 50
89.97980739072238
 51
179.9798073907252
  0
LINE
  5
2B2
330
1F
100
AcDbEntity
  8
0
  6
Continuous
 62
     7
370
    25
100
AcDbLine
 10
3494.11845457858
 20
3830.819282948082
 30
0.0
 11
3493.118454640683
 21
3830.819635375591
 31
0.0
  0
ARC
  5
2B3
330
1F
100
AcDbEntity
  8
0
  6
Continuous
 62
     7
370
    25
100
AcDbCircle
 10
3503.100832644199
 20
3780.816114205629
 30
0.0
 40
9.00000000000004
100
AcDbArc
 50
179.9798073907224
 51
269.9798073907232
  0
ARC
  5
2B4
330
1F
100
AcDbEntity
  8
0
  6
Continuous
 62
     7
370
    25
100
AcDbCircle
 10
3503.100832644199
 20
3780.816114205629
 30
0.0
 40
10.00000000000004
100
AcDbArc
 50
179.9798073907212
 51
269.9798073907246
  0
LINE
  5
2B5
330
1F
100
AcDbEntity
  8
0
  6
Continuous
 62
     7
370
    25
100
AcDbLine
 10
3493.100833265225
 20
3780.81963848072
 30
0.0
 11
3494.100833203122
 21
3780.819286053211
 31
0.0
  0
LINE
  5
2B6
330
1F
100
AcDbEntity
  8
0
  6
Continuous
 62
     7
370
    25
100
AcDbLine
 10
3553.121975189621
 20
3840.798489104016
 30
0.0
 11
3503.121978294749
 21
3840.816110479474
 31
0.0
  0
LINE
  5
2B7
330
1F
100
AcDbEntity
  8
0
  6
Continuous
 62
     7
370
    25
100
AcDbLine
 10
3553.121622762112
 20
3839.798489166118
 30
0.0
 11
3553.121975189621
 21
3840.798489104016
 31
0.0
  0
LINE
  5
2B8
330
1F
100
AcDbEntity
  8
0
  6
Continuous
 62
     7
370
    25
100
AcDbLine
 10
3503.121625867239
 20
3839.816110541576
 30
0.0
 11
3553.121622762112
 21
3839.798489166118
 31
0.0
  0
LINE
  5
2B9
330
1F
100
AcDbEntity
  8
0
  6
Continuous
 62
     7
370
    25
100
AcDbLine
 10
3562.118450355606
 20
3830.795317877459
 30
0.0
 11
3562.100828980148
 21
3780.795320982587
 31
0.0
  0
ARC
  5
2BA
330
1F
100
AcDbEntity
  8
0
  6
Continuous
 62
     7
370
    25
100
AcDbCircle
 10
3553.100829539071
 20
3780.798492830171
 30
0.0
 40
9.00000000000004
100
AcDbArc
 50
269.9798073907232
 51
359.9798073907232
  0
LINE
  5
2BB
330
1F
100
AcDbEntity
  8
0
  6
Continuous
 62
     7
370
    25
100
AcDbLine
 10
3494.100833203122
 20
3780.819286053211
 30
0.0
 11
3494.11845457858
 21
3830.819282948082
 31
0.0
  0
ARC
  5
2BC
330
1F
100
AcDbEntity
  8
0
  6
Continuous
 62
     7
370
    25
100
AcDbCircle
 10
3553.118450914529
 20
3830.798489725042
 30
0.0
 40
9.000000000000495
100
AcDbArc
 50
359.9798073907261
 51
89.9798073907195
  0
LINE
  5
2BD
330
1F
100
AcDbEntity
  8
0
  6
Continuous
 62
     7
370
    25
100
AcDbLine
 10
3493.118454640683
 20
3830.819635375591
 30
0.0
 11
3493.100833265225
 21
3780.81963848072
 31
0.0
  0
LINE
  5
2BE
330
1F
100
AcDbEntity
  8
0
  6
Continuous
 62
     7
370
    25
100
AcDbLine
 10
3563.100828918045
 20
3780.794968555079
 30
0.0
 11
3563.118450293503
 21
3830.79496544995
 31
0.0
  0
LINE
  5
2BF
330
1F
100
AcDbEntity
  8
0
  6
Continuous
 62
     7
370
    25
100
AcDbLine
 10
3563.100828918045
 20
3780.794968555079
 30
0.0
 11
3562.100828980148
 21
3780.795320982587
 31
0.0
  0
LINE
  5
2C0
330
1F
100
AcDbEntity
  8
0
  6
Continuous
 62
     7
370
    25
100
AcDbLine
 10
3562.118450355606
 20
3830.795317877459
 30
0.0
 11
3563.118450293503
 21
3830.79496544995
 31
0.0
  0
ARC
  5
2C1
330
1F
100
AcDbEntity
  8
0
  6
Continuous
 62
     7
370
    25
100
AcDbCircle
 10
3553.118450914529
 20
3830.798489725042
 30
0.0
 40
10.00000000000004
100
AcDbArc
 50
359.9798073907273
 51
89.97980739072124
  0
ARC
  5
2C2
330
1F
100
AcDbEntity
  8
0
  6
Continuous
 62
     7
370
    25
100
AcDbCircle
 10
3553.100829539071
 20
3780.798492830171
 30
0.0
 40
10.0000000000005
100
AcDbArc
 50
269.9798073907221
 51
359.9798073907221
  0
LINE
  5
2C3
330
1F
100
AcDbEntity
  8
0
  6
Continuous
 62
     7
370
    25
100
AcDbLine
 10
4113.114211312983
 20
3780.806149575435
 30
0.0
 11
4113.114211312985
 21
3830.806149575435
 31
0.0
  0
LINE
  5
2C4
330
1F
100
AcDbEntity
  8
0
  6
Continuous
 62
     7
370
    25
100
AcDbLine
 10
4113.114211312983
 20
3780.806149575435
 30
0.0
 11
4112.114211312984
 21
3780.806149575435
 31
0.0
  0
LINE
  5
2C5
330
1F
100
AcDbEntity
  8
0
  6
Continuous
 62
     7
370
    25
100
AcDbLine
 10
4112.114211312984
 20
3830.806149575435
 30
0.0
 11
4112.114211312984
 21
3780.806149575435
 31
0.0
  0
LINE
  5
2C6
330
1F
100
AcDbEntity
  8
0
  6
Continuous
 62
     7
370
    25
100
AcDbLine
 10
4112.114211312984
 20
3830.806149575435
 30
0.0
 11
4113.114211312985
 21
3830.806149575435
 31
0.0
  0
ARC
  5
2C7
330
1F
100
AcDbEntity
  8
0
  6
Continuous
 62
     7
370
    25
100
AcDbCircle
 10
4053.114211312983
 20
3830.806149575436
 30
0.0
 40
10.0
100
AcDbArc
 50
90.0
 51
179.9999999999974
  0
LINE
  5
2C8
330
1F
100
AcDbEntity
  8
0
  6
Continuous
 62
     7
370
    25
100
AcDbLine
 10
4053.114211312983
 20
3839.806149575436
 30
0.0
 11
4053.114211312983
 21
3840.806149575435
 31
0.0
  0
ARC
  5
2C9
330
1F
100
AcDbEntity
  8
0
  6
Continuous
 62
     7
370
    25
100
AcDbCircle
 10
4053.114211312983
 20
3830.806149575436
 30
0.0
 40
9.0
100
AcDbArc
 50
90.0
 51
179.9999999999971
  0
LINE
  5
2CA
330
1F
100
AcDbEntity
  8
0
  6
Continuous
 62
     7
370
    25
100
AcDbLine
 10
4044.114211312983
 20
3830.806149575436
 30
0.0
 11
4043.114211312984
 21
3830.806149575436
 31
0.0
  0
LINE
  5
2CB
330
1F
100
AcDbEntity
  8
0
  6
Continuous
 62
     7
370
    25
100
AcDbLine
 10
4103.114211312984
 20
3840.806149575434
 30
0.0
 11
4053.114211312983
 21
3840.806149575435
 31
0.0
  0
LINE
  5
2CC
330
1F
100
AcDbEntity
  8
0
  6
Continuous
 62
     7
370
    25
100
AcDbLine
 10
4103.114211312984
 20
3839.806149575434
 30
0.0
 11
4103.114211312984
 21
3840.806149575434
 31
0.0
  0
LINE
  5
2CD
330
1F
100
AcDbEntity
  8
0
  6
Continuous
 62
     7
370
    25
100
AcDbLine
 10
4053.114211312983
 20
3839.806149575436
 30
0.0
 11
4103.114211312984
 21
3839.806149575434
 31
0.0
  0
ARC
  5
2CE
330
1F
100
AcDbEntity
  8
0
  6
Continuous
 62
     7
370
    25
100
AcDbCircle
 10
4103.114211312984
 20
3830.806149575435
 30
0.0
 40
10.0
100
AcDbArc
 50
0.0
 51
90.0
  0
ARC
  5
2CF
330
1F
100
AcDbEntity
  8
0
  6
Continuous
 62
     7
370
    25
100
AcDbCircle
 10
4103.114211312984
 20
3830.806149575435
 30
0.0
 40
9.0
100
AcDbArc
 50
0.0
 51
90.0
  0
LINE
  5
2D0
330
1F
100
AcDbEntity
  8
0
  6
Continuous
 62
     7
370
    25
100
AcDbLine
 10
4043.114211312984
 20
3830.806149575436
 30
0.0
 11
4043.114211312983
 21
3780.806149575436
 31
0.0
  0
LINE
  5
2D1
330
1F
100
AcDbEntity
  8
0
  6
Continuous
 62
     7
370
    25
100
AcDbLine
 10
4044.114211312983
 20
3780.806149575436
 30
0.0
 11
4044.114211312983
 21
3830.806149575436
 31
0.0
  0
LINE
  5
2D2
330
1F
100
AcDbEntity
  8
0
  6
Continuous
 62
     7
370
    25
100
AcDbLine
 10
4043.114211312983
 20
3780.806149575436
 30
0.0
 11
4044.114211312983
 21
3780.806149575436
 31
0.0
  0
ARC
  5
2D3
330
1F
100
AcDbEntity
  8
0
  6
Continuous
 62
     7
370
    25
100
AcDbCircle
 10
4103.114211312983
 20
3780.806149575435
 30
0.0
 40
9.0
100
AcDbArc
 50
270.0000000000008
 51
0.0
  0
LINE
  5
2D4
330
1F
100
AcDbEntity
  8
0
  6
Continuous
 62
     7
370
    25
100
AcDbLine
 10
4103.114211312983
 20
3771.806149575435
 30
0.0
 11
4053.114211312982
 21
3771.806149575436
 31
0.0
  0
ARC
  5
2D5
330
1F
100
AcDbEntity
  8
0
  6
Continuous
 62
     7
370
    25
100
AcDbCircle
 10
4053.114211312982
 20
3780.806149575436
 30
0.0
 40
9.0
100
AcDbArc
 50
179.9999999999971
 51
270.0000000000008
  0
LINE
  5
2D6
330
1F
100
AcDbEntity
  8
0
  6
Continuous
 62
     7
370
    25
100
AcDbLine
 10
4103.114211312983
 20
3770.806149575435
 30
0.0
 11
4103.114211312983
 21
3771.806149575435
 31
0.0
  0
LINE
  5
2D7
330
1F
100
AcDbEntity
  8
0
  6
Continuous
 62
     7
370
    25
100
AcDbLine
 10
4053.114211312982
 20
3770.806149575435
 30
0.0
 11
4103.114211312983
 21
3770.806149575435
 31
0.0
  0
LINE
  5
2D8
330
1F
100
AcDbEntity
  8
0
  6
Continuous
 62
     7
370
    25
100
AcDbLine
 10
4053.114211312982
 20
3770.806149575435
 30
0.0
 11
4053.114211312982
 21
3771.806149575436
 31
0.0
  0
ARC
  5
2D9
330
1F
100
AcDbEntity
  8
0
  6
Continuous
 62
     7
370
    25
100
AcDbCircle
 10
4053.114211312982
 20
3780.806149575436
 30
0.0
 40
10.00000000000045
100
AcDbArc
 50
179.9999999999974
 51
270.0000000000008
  0
ARC
  5
2DA
330
1F
100
AcDbEntity
  8
0
  6
Continuous
 62
     7
370
    25
100
AcDbCircle
 10
4103.114211312983
 20
3780.806149575435
 30
0.0
 40
10.0
100
AcDbArc
 50
270.0000000000008
 51
0.0
  0
ARC
  5
2DB
330
1F
100
AcDbEntity
  8
0
  6
Continuous
 62
     7
370
    25
100
AcDbCircle
 10
3527.993789144697
 20
3805.807342794993
 30
0.0
 40
25.4902885393568
100
AcDbArc
 50
247.4647531725173
 51
197.1093532775103
  0
ARC
  5
2DC
330
1F
100
AcDbEntity
  8
0
  6
Continuous
 62
     7
370
    25
100
AcDbCircle
 10
3512.839960757438
 20
3769.28632655032
 30
0.0
 40
14.04985741806392
100
AcDbArc
 50
67.46475317252562
 51
86.80176221360454
  0
ARC
  5
2DD
330
1F
100
AcDbEntity
  8
0
  6
Continuous
 62
     7
370
    25
100
AcDbCircle
 10
3512.996701935581
 20
3763.801806493815
 30
0.0
 40
19.52256930894632
100
AcDbArc
 50
88.15920604279112
 51
97.72424553196522
  0
LINE
  5
2DE
330
1F
100
AcDbEntity
  8
0
  6
Continuous
 62
     7
370
    25
100
AcDbLine
 10
3510.372760813265
 20
3783.147236067986
 30
0.0
 11
3503.801321591369
 21
3782.255910830621
 31
0.0
  0
ARC
  5
2DF
330
1F
100
AcDbEntity
  8
0
  6
Continuous
 62
     7
370
    25
100
AcDbCircle
 10
3503.609325991042
 20
3783.671429392793
 30
0.0
 40
1.428480000000415
100
AcDbArc
 50
166.7728220352227
 51
277.7242455319541
  0
LINE
  5
2E0
330
1F
100
AcDbEntity
  8
0
  6
Continuous
 62
     7
370
    25
100
AcDbLine
 10
3502.218742885111
 20
3783.998283696577
 30
0.0
 11
3503.730976803413
 21
3790.431997172778
 31
0.0
  0
ARC
  5
2E1
330
1F
100
AcDbEntity
  8
0
  6
Continuous
 62
     7
370
    25
100
AcDbCircle
 10
3489.554216142899
 20
3794.191800952466
 30
0.0
 40
14.66685608053885
100
AcDbArc
 50
345.1465872433495
 51
16.29956760412603
  0
ARC
  5
2E2
330
1F
100
AcDbEntity
  8
0
  6
Continuous
 62
     7
370
    25
100
AcDbCircle
 10
3489.554216142899
 20
3794.191800952466
 30
0.0
 40
17.43165608053878
100
AcDbArc
 50
345.2811267170793
 51
16.36839589112321
  0
LINE
  5
2E3
330
1F
100
AcDbEntity
  8
0
  6
Continuous
 62
     7
370
    25
100
AcDbLine
 10
3505.354683924917
 20
3785.256719404432
 30
0.0
 11
3506.413836953302
 21
3789.762825919841
 31
0.0
  0
LINE
  5
2E4
330
1F
100
AcDbEntity
  8
0
  6
Continuous
 62
     7
370
    25
100
AcDbLine
 10
3510.001156425535
 20
3785.886949414127
 30
0.0
 11
3505.354683924917
 21
3785.256719404432
 31
0.0
  0
ARC
  5
2E5
330
1F
100
AcDbEntity
  8
0
  6
Continuous
 62
     7
370
    25
100
AcDbCircle
 10
3512.996701935581
 20
3763.801806493815
 30
0.0
 40
22.28736930894602
100
AcDbArc
 50
88.07599918925516
 51
97.72424553196479
  0
ARC
  5
2E6
330
1F
100
AcDbEntity
  8
0
  6
Continuous
 62
     7
370
    25
100
AcDbCircle
 10
3512.839960757438
 20
3769.28632655032
 30
0.0
 40
16.81465741806443
100
AcDbArc
 50
67.46475317252283
 51
86.91468382134861
  0
ARC
  5
2E7
330
1F
100
AcDbEntity
  8
0
  6
Continuous
 62
     7
370
    25
100
AcDbCircle
 10
3527.993789144697
 20
3805.807342794993
 30
0.0
 40
22.72548853935658
100
AcDbArc
 50
247.4647531725183
 51
197.155079023147
  0
ARC
  5
2E8
330
1F
100
AcDbEntity
  8
0
  6
Continuous
 62
     7
370
    25
100
AcDbCircle
 10
4062.857402235741
 20
3769.27979497282
 30
0.0
 40
16.81465741806437
100
AcDbArc
 50
67.48494578179864
 51
86.93487643062452
  0
ARC
  5
2E9
330
1F
100
AcDbEntity
  8
0
  6
Continuous
 62
     7
370
    25
100
AcDbCircle
 10
4063.016076299891
 20
3763.795330496819
 30
0.0
 40
22.28736930894656
100
AcDbArc
 50
88.09619179853044
 51
97.74443814123916
  0
LINE
  5
2EA
330
1F
100
AcDbEntity
  8
0
  6
Continuous
 62
     7
370
    25
100
AcDbLine
 10
4060.012747563969
 20
3785.879416332945
 30
0.0
 11
4055.3664974623
 21
3785.247548817659
 31
0.0
  0
LINE
  5
2EB
330
1F
100
AcDbEntity
  8
0
  6
Continuous
 62
     7
370
    25
100
AcDbLine
 10
4055.3664974623
 20
3785.247548817659
 30
0.0
 11
4056.424062349015
 21
3789.754028327891
 31
0.0
  0
ARC
  5
2EC
330
1F
100
AcDbEntity
  8
0
  6
Continuous
 62
     7
370
    25
100
AcDbCircle
 10
4039.562881693
 20
3794.177061291297
 30
0.0
 40
17.43165608053847
100
AcDbArc
 50
345.3013193263542
 51
16.38858850039798
  0
LINE
  5
2ED
330
1F
100
AcDbEntity
  8
0
  6
Continuous
 62
     7
370
    25
100
AcDbLine
 10
4052.231000124607
 20
3783.988007996067
 30
0.0
 11
4053.740966531381
 21
3790.42225402555
 31
0.0
  0
ARC
  5
2EE
330
1F
100
AcDbEntity
  8
0
  6
Continuous
 62
     7
370
    25
100
AcDbCircle
 10
4053.621698336627
 20
3783.661643792322
 30
0.0
 40
1.428480000000151
100
AcDbArc
 50
166.7930146445186
 51
277.7444381412284
  0
LINE
  5
2EF
330
1F
100
AcDbEntity
  8
0
  6
Continuous
 62
     7
370
    25
100
AcDbLine
 10
4060.385317478973
 20
3783.139834120556
 30
0.0
 11
4053.814192792712
 21
3782.246192982589
 31
0.0
  0
ARC
  5
2F0
330
1F
100
AcDbEntity
  8
0
  6
Continuous
 62
     7
370
    25
100
AcDbCircle
 10
4063.016076299891
 20
3763.795330496819
 30
0.0
 40
19.52256930894613
100
AcDbArc
 50
88.17939865206703
 51
97.74443814123891
  0
ARC
  5
2F1
330
1F
100
AcDbEntity
  8
0
  6
Continuous
 62
     7
370
    25
100
AcDbCircle
 10
4062.857402235741
 20
3769.27979497282
 30
0.0
 40
14.04985741806392
100
AcDbArc
 50
67.48494578180132
 51
86.82195482288147
  0
ARC
  5
2F2
330
1F
100
AcDbEntity
  8
0
  6
Continuous
 62
     7
370
    25
100
AcDbCircle
 10
4077.998358671121
 20
3805.806149575436
 30
0.0
 40
25.49028853935683
100
AcDbArc
 50
247.4849457817942
 51
197.1295458867872
  0
ARC
  5
2F3
330
1F
100
AcDbEntity
  8
0
  6
Continuous
 62
     7
370
    25
100
AcDbCircle
 10
4039.562881693
 20
3794.177061291297
 30
0.0
 40
14.66685608053867
100
AcDbArc
 50
345.1667798526264
 51
16.31976021340278
  0
ARC
  5
2F4
330
1F
100
AcDbEntity
  8
0
  6
Continuous
 62
     7
370
    25
100
AcDbCircle
 10
4077.998358671121
 20
3805.806149575436
 30
0.0
 40
22.7254885393566
100
AcDbArc
 50
247.4849457817953
 51
197.1752716324255
  0
ARC
  5
2F5
330
1F
100
AcDbEntity
  8
0
  6
Continuous
 62
     7
370
    25
100
AcDbCircle
 10
4076.654989497527
 20
3803.712323111888
 30
0.0
 40
3.051732068692616
100
AcDbArc
 50
269.8715964994539
 51
90.12839140110145
  0
LINE
  5
2F6
330
1F
100
AcDbEntity
  8
0
  6
Continuous
 62
     7
370
    25
100
AcDbLine
 10
4073.823936101897
 20
3800.660603498315
 30
0.0
 11
4076.648150376816
 21
3800.660598706652
 31
0.0
  0
LINE
  5
2F7
330
1F
100
AcDbEntity
  8
0
  6
Continuous
 62
     7
370
    25
100
AcDbLine
 10
4075.638374809097
 20
3793.347510371039
 30
0.0
 11
4073.823936101897
 21
3800.660603498315
 31
0.0
  0
ARC
  5
2F8
330
1F
100
AcDbEntity
  8
0
  6
Continuous
 62
     7
370
    25
100
AcDbCircle
 10
4072.676446307098
 20
3792.612631486214
 30
0.0
 40
3.051731873267577
100
AcDbArc
 50
270.0001082964734
 51
13.93418447086988
  0
LINE
  5
2F9
330
1F
100
AcDbEntity
  8
0
  6
Continuous
 62
     7
370
    25
100
AcDbLine
 10
4066.108288141256
 20
3789.560887198268
 30
0.0
 11
4072.676452075267
 21
3789.560899612953
 31
0.0
  0
ARC
  5
2FA
330
1F
100
AcDbEntity
  8
0
  6
Continuous
 62
     7
370
    25
100
AcDbCircle
 10
4066.108282041414
 20
3792.788094453165
 30
0.0
 40
3.227207254902476
100
AcDbArc
 50
164.2362389849799
 51
270.0001082964825
  0
LINE
  5
2FB
330
1F
100
AcDbEntity
  8
0
  6
Continuous
 62
     7
370
    25
100
AcDbLine
 10
4064.977274610477
 20
3800.660603018585
 30
0.0
 11
4063.002450001413
 21
3793.664835010797
 31
0.0
  0
LINE
  5
2FC
330
1F
100
AcDbEntity
  8
0
  6
Continuous
 62
     7
370
    25
100
AcDbLine
 10
4061.682345039256
 20
3800.660603018586
 30
0.0
 11
4064.977274610477
 21
3800.660603018585
 31
0.0
  0
ARC
  5
2FD
330
1F
100
AcDbEntity
  8
0
  6
Continuous
 62
     7
370
    25
100
AcDbCircle
 10
4061.682345039256
 20
3803.712334009857
 30
0.0
 40
3.051730991272217
100
AcDbArc
 50
89.99984560703218
 51
270.0000000000008
  0
LINE
  5
2FE
330
1F
100
AcDbEntity
  8
0
  6
Continuous
 62
     7
370
    25
100
AcDbLine
 10
4067.587235090203
 20
3806.764049089436
 30
0.0
 11
4061.68235326265
 21
3806.764065001118
 31
0.0
  0
LINE
  5
2FF
330
1F
100
AcDbEntity
  8
0
  6
Continuous
 62
     7
370
    25
100
AcDbLine
 10
4067.587235090203
 20
3807.40812150694
 30
0.0
 11
4067.587235090203
 21
3806.764049089436
 31
0.0
  0
ARC
  5
300
330
1F
100
AcDbEntity
  8
0
  6
Continuous
 62
     7
370
    25
100
AcDbCircle
 10
4069.386485896521
 20
3812.346582854511
 30
0.0
 40
5.256015976524979
100
AcDbArc
 50
292.3501084948709
 51
249.981583346195
  0
LINE
  5
301
330
1F
100
AcDbEntity
  8
0
  6
Continuous
 62
     7
370
    25
100
AcDbLine
 10
4071.385165674217
 20
3806.764047518568
 30
0.0
 11
4071.385165674217
 21
3807.485411895604
 31
0.0
  0
LINE
  5
302
330
1F
100
AcDbEntity
  8
0
  6
Continuous
 62
     7
370
    25
100
AcDbLine
 10
4076.648151021265
 20
3806.764047518568
 30
0.0
 11
4071.385165674217
 21
3806.764047518568
 31
0.0
  0
LINE
  5
303
330
1F
100
AcDbEntity
  8
0
  6
Continuous
 62
     7
370
    25
100
AcDbLine
 10
3521.380934148075
 20
3806.767571349773
 30
0.0
 11
3521.381188376726
 21
3807.488935682011
 31
0.0
  0
ARC
  5
304
330
1F
100
AcDbEntity
  8
0
  6
Continuous
 62
     7
370
    25
100
AcDbCircle
 10
3519.384221933527
 20
3812.350810728761
 30
0.0
 40
5.256015976524348
100
AcDbArc
 50
292.3299158855918
 51
249.9613907369151
  0
LINE
  5
305
330
1F
100
AcDbEntity
  8
0
  6
Continuous
 62
     7
370
    25
100
AcDbLine
 10
3517.583230789315
 20
3807.412983793362
 30
0.0
 11
3517.583003800477
 21
3806.768911415857
 31
0.0
  0
LINE
  5
306
330
1F
100
AcDbEntity
  8
0
  6
Continuous
 62
     7
370
    25
100
AcDbLine
 10
3517.583003800477
 20
3806.768911415857
 30
0.0
 11
3511.67812234524
 21
3806.771008370333
 31
0.0
  0
ARC
  5
307
330
1F
100
AcDbEntity
  8
0
  6
Continuous
 62
     7
370
    25
100
AcDbCircle
 10
3511.677038607893
 20
3803.719277571491
 30
0.0
 40
3.051730991272358
100
AcDbArc
 50
89.9796529977441
 51
269.9798073907224
  0
LINE
  5
308
330
1F
100
AcDbEntity
  8
0
  6
Continuous
 62
     7
370
    25
100
AcDbLine
 10
3511.675963093941
 20
3800.667546769739
 30
0.0
 11
3514.970892460539
 21
3800.666385545916
 31
0.0
  0
LINE
  5
309
330
1F
100
AcDbEntity
  8
0
  6
Continuous
 62
     7
370
    25
100
AcDbLine
 10
3514.970892460539
 20
3800.666385545916
 30
0.0
 11
3512.993602473024
 21
3793.671313955102
 31
0.0
  0
ARC
  5
30A
330
1F
100
AcDbEntity
  8
0
  6
Continuous
 62
     7
370
    25
100
AcDbCircle
 10
3516.099125332654
 20
3792.793478871268
 30
0.0
 40
3.227207254902105
100
AcDbArc
 50
164.2160463756989
 51
269.9799156872112
  0
LINE
  5
30B
330
1F
100
AcDbEntity
  8
0
  6
Continuous
 62
     7
370
    25
100
AcDbLine
 10
3516.097994075881
 20
3789.56627181464
 30
0.0
 11
3522.666157606367
 21
3789.563969427668
 31
0.0
  0
ARC
  5
30C
330
1F
100
AcDbEntity
  8
0
  6
Continuous
 62
     7
370
    25
100
AcDbCircle
 10
3522.66722735246
 20
3792.615701113443
 30
0.0
 40
3.05173187326794
100
AcDbArc
 50
269.9799156872063
 51
13.91399186158091
  0
LINE
  5
30D
330
1F
100
AcDbEntity
  8
0
  6
Continuous
 62
     7
370
    25
100
AcDbLine
 10
3525.629414662051
 20
3793.349536087545
 30
0.0
 11
3523.817553402727
 21
3800.663268218772
 31
0.0
  0
LINE
  5
30E
330
1F
100
AcDbEntity
  8
0
  6
Continuous
 62
     7
370
    25
100
AcDbLine
 10
3523.817553402727
 20
3800.663268218772
 30
0.0
 11
3526.641767500568
 21
3800.662268096307
 31
0.0
  0
ARC
  5
30F
330
1F
100
AcDbEntity
  8
0
  6
Continuous
 62
     7
370
    25
100
AcDbCircle
 10
3526.649682132485
 20
3803.713989901729
 30
0.0
 40
3.05173206869295
100
AcDbArc
 50
269.8514038901829
 51
90.10819879182188
  0
LINE
  5
310
330
1F
100
AcDbEntity
  8
0
  6
Continuous
 62
     7
370
    25
100
AcDbLine
 10
3526.643919168278
 20
3806.765716528957
 30
0.0
 11
3521.380934148075
 21
3806.767571349773
 31
0.0
  0
ARC
  5
311
330
1F
100
AcDbEntity
  8
0
  6
Continuous
 62
     7
370
    25
100
AcDbCircle
 10
4076.386805613875
 20
3809.299685595176
 30
0.0
 40
1.42848000000049
100
AcDbArc
 50
156.480480165217
 51
270.0000000000008
  0
LINE
  5
312
330
1F
100
AcDbEntity
  8
0
  6
Continuous
 62
     7
370
    25
100
AcDbLine
 10
4076.647906677172
 20
3807.871205595176
 30
0.0
 11
4076.386805613875
 21
3807.871205595176
 31
0.0
  0
ARC
  5
313
330
1F
100
AcDbEntity
  8
0
  6
Continuous
 62
     7
370
    25
100
AcDbCircle
 10
4076.647906677172
 20
3803.712330775757
 30
0.0
 40
4.158874819418803
100
AcDbArc
 50
283.9083019968857
 51
90.0
  0
LINE
  5
314
330
1F
100
AcDbEntity
  8
0
  6
Continuous
 62
     7
370
    25
100
AcDbLine
 10
4076.709758100314
 20
3796.898684747252
 30
0.0
 11
4077.647569986175
 21
3799.675387249742
 31
0.0
  0
ARC
  5
315
330
1F
100
AcDbEntity
  8
0
  6
Continuous
 62
     7
370
    25
100
AcDbCircle
 10
4079.601037724355
 20
3795.922175238459
 30
0.0
 40
3.051732079518071
100
AcDbArc
 50
161.3379620489784
 51
336.6749944594073
  0
LINE
  5
316
330
1F
100
AcDbEntity
  8
0
  6
Continuous
 62
     7
370
    25
100
AcDbLine
 10
4084.506500781259
 20
3799.591423975623
 30
0.0
 11
4082.40336292972
 21
3794.713853208314
 31
0.0
  0
LINE
  5
317
330
1F
100
AcDbEntity
  8
0
  6
Continuous
 62
     7
370
    25
100
AcDbLine
 10
4085.84923070381
 20
3795.228058419269
 30
0.0
 11
4084.506500781259
 21
3799.591423975623
 31
0.0
  0
ARC
  5
318
330
1F
100
AcDbEntity
  8
0
  6
Continuous
 62
     7
370
    25
100
AcDbCircle
 10
4088.767561798609
 20
3796.120510067474
 30
0.0
 40
3.05174152300812
100
AcDbArc
 50
197.0040988823306
 51
17.20578716753524
  0
LINE
  5
319
330
1F
100
AcDbEntity
  8
0
  6
Continuous
 62
     7
370
    25
100
AcDbLine
 10
4089.012227485619
 20
3805.701267421954
 30
0.0
 11
4091.682733277951
 21
3797.023229054353
 31
0.0
  0
LINE
  5
31A
330
1F
100
AcDbEntity
  8
0
  6
Continuous
 62
     7
370
    25
100
AcDbLine
 10
4092.589436057891
 20
3805.701267421953
 30
0.0
 11
4089.012227485619
 21
3805.701267421954
 31
0.0
  0
ARC
  5
31B
330
1F
100
AcDbEntity
  8
0
  6
Continuous
 62
     7
370
    25
100
AcDbCircle
 10
4092.589436057891
 20
3808.717764892128
 30
0.0
 40
3.016497470175181
100
AcDbArc
 50
270.0000000000008
 51
90.0
  0
LINE
  5
31C
330
1F
100
AcDbEntity
  8
0
  6
Continuous
 62
     7
370
    25
100
AcDbLine
 10
4087.094973288421
 20
3811.734262362303
 30
0.0
 11
4092.589436057891
 21
3811.734262362303
 31
0.0
  0
LINE
  5
31D
330
1F
100
AcDbEntity
  8
0
  6
Continuous
 62
     7
370
    25
100
AcDbLine
 10
4087.094973288421
 20
3812.381576991995
 30
0.0
 11
4087.094973288421
 21
3811.734262362303
 31
0.0
  0
ARC
  5
31E
330
1F
100
AcDbEntity
  8
0
  6
Continuous
 62
     7
370
    25
100
AcDbCircle
 10
4084.144058718729
 20
3816.731037550287
 30
0.0
 40
5.256015976550798
100
AcDbArc
 50
304.1551384357248
 51
231.6705878806204
  0
LINE
  5
31F
330
1F
100
AcDbEntity
  8
0
  6
Continuous
 62
     7
370
    25
100
AcDbLine
 10
4080.884372445058
 20
3811.552748488579
 30
0.0
 11
4080.884373238538
 21
3812.607913186895
 31
0.0
  0
LINE
  5
320
330
1F
100
AcDbEntity
  8
0
  6
Continuous
 62
     7
370
    25
100
AcDbLine
 10
4076.691109368066
 20
3811.552739579744
 30
0.0
 11
4080.884372445058
 21
3811.552748488579
 31
0.0
  0
ARC
  5
321
330
1F
100
AcDbEntity
  8
0
  6
Continuous
 62
     7
370
    25
100
AcDbCircle
 10
4076.691112402957
 20
3810.124259579748
 30
0.0
 40
1.4284799999999
100
AcDbArc
 50
90.0001217282681
 51
163.0066293238269
  0
ARC
  5
322
330
1F
100
AcDbEntity
  8
0
  6
Continuous
 62
     7
370
    25
100
AcDbCircle
 10
4069.307509293098
 20
3812.380719460935
 30
0.0
 40
6.292219843882468
100
AcDbArc
 50
336.4804801652064
 51
343.0066293238143
  0
LINE
  5
323
330
1F
100
AcDbEntity
  8
0
  6
Continuous
 62
     7
370
    25
100
AcDbLine
 10
3526.702049418272
 20
3796.900332658276
 30
0.0
 11
3527.64083983224
 21
3799.676704477619
 31
0.0
  0
LINE
  5
324
330
1F
100
AcDbEntity
  8
0
  6
Continuous
 62
     7
370
    25
100
AcDbLine
 10
3526.644065017165
 20
3807.872874622921
 30
0.0
 11
3526.382963970081
 21
3807.872966642118
 31
0.0
  0
ARC
  5
325
330
1F
100
AcDbEntity
  8
0
  6
Continuous
 62
     7
370
    25
100
AcDbCircle
 10
3526.642599315271
 20
3803.714000061779
 30
0.0
 40
4.158874819418898
100
AcDbArc
 50
283.8881093876069
 51
89.97980739072
  0
ARC
  5
326
330
1F
100
AcDbEntity
  8
0
  6
Continuous
 62
     7
370
    25
100
AcDbCircle
 10
3526.38346740573
 20
3809.301446553405
 30
0.0
 40
1.428480000000832
100
AcDbArc
 50
156.4602875559131
 51
269.97980739071
  0
ARC
  5
327
330
1F
100
AcDbEntity
  8
0
  6
Continuous
 62
     7
370
    25
100
AcDbCircle
 10
3529.592984713943
 20
3795.922804243649
 30
0.0
 40
3.051732079518169
100
AcDbArc
 50
161.3177694396981
 51
336.6548018501417
  0
LINE
  5
328
330
1F
100
AcDbEntity
  8
0
  6
Continuous
 62
     7
370
    25
100
AcDbLine
 10
3534.499740610399
 20
3799.590323932818
 30
0.0
 11
3532.394883899355
 21
3794.713494672054
 31
0.0
  0
ARC
  5
329
330
1F
100
AcDbEntity
  8
0
  6
Continuous
 62
     7
370
    25
100
AcDbCircle
 10
3538.759578117583
 20
3796.117908525101
 30
0.0
 40
3.051741523008039
100
AcDbArc
 50
196.9839062730527
 51
17.1855945582669
  0
LINE
  5
32A
330
1F
100
AcDbEntity
  8
0
  6
Continuous
 62
     7
370
    25
100
AcDbLine
 10
3539.007620311849
 20
3805.698579057672
 30
0.0
 11
3541.67506755889
 21
3797.019600069297
 31
0.0
  0
LINE
  5
32B
330
1F
100
AcDbEntity
  8
0
  6
Continuous
 62
     7
370
    25
100
AcDbLine
 10
3542.584828661966
 20
3805.697318350965
 30
0.0
 11
3539.007620311849
 21
3805.698579057672
 31
0.0
  0
ARC
  5
32C
330
1F
100
AcDbEntity
  8
0
  6
Continuous
 62
     7
370
    25
100
AcDbCircle
 10
3542.585891758656
 20
3808.713815633808
 30
0.0
 40
3.016497470175184
100
AcDbArc
 50
269.9798073907217
 51
89.9798073907295
  0
LINE
  5
32D
330
1F
100
AcDbEntity
  8
0
  6
Continuous
 62
     7
370
    25
100
AcDbLine
 10
3537.092492427098
 20
3811.732249316479
 30
0.0
 11
3542.586954855346
 21
3811.730312916651
 31
0.0
  0
LINE
  5
32E
330
1F
100
AcDbEntity
  8
0
  6
Continuous
 62
     7
370
    25
100
AcDbLine
 10
3537.092720558579
 20
3812.379563905971
 30
0.0
 11
3537.092492427098
 21
3811.732249316479
 31
0.0
  0
ARC
  5
32F
330
1F
100
AcDbEntity
  8
0
  6
Continuous
 62
     7
370
    25
100
AcDbCircle
 10
3534.143339041698
 20
3816.730064177622
 30
0.0
 40
5.256015976551014
100
AcDbArc
 50
304.1349458264405
 51
231.650395271344
  0
LINE
  5
330
330
1F
100
AcDbEntity
  8
0
  6
Continuous
 62
     7
370
    25
100
AcDbLine
 10
3530.881827998945
 20
3811.552924240612
 30
0.0
 11
3530.882200661493
 21
3812.608088873121
 31
0.0
  0
LINE
  5
331
330
1F
100
AcDbEntity
  8
0
  6
Continuous
 62
     7
370
    25
100
AcDbLine
 10
3526.688565179227
 20
3811.554393153039
 30
0.0
 11
3530.881827998945
 21
3811.552924240612
 31
0.0
  0
ARC
  5
332
330
1F
100
AcDbEntity
  8
0
  6
Continuous
 62
     7
370
    25
100
AcDbCircle
 10
3526.688064778468
 20
3810.125913240686
 30
0.0
 40
1.42847999999983
100
AcDbArc
 50
89.9799291189848
 51
162.9864367145595
  0
ARC
  5
333
330
1F
100
AcDbEntity
  8
0
  6
Continuous
 62
     7
370
    25
100
AcDbCircle
 10
3519.305257365687
 20
3812.384975166594
 30
0.0
 40
6.292219843882135
100
AcDbArc
 50
336.4602875559302
 51
342.9864367145326
  0
LINE
  5
334
330
1F
100
AcDbEntity
  8
0
  6
Continuous
 62
     7
370
    25
100
AcDbLine
 10
3535.840932679509
 20
3795.226485432479
 30
0.0
 11
3534.499740610399
 21
3799.590323932818
 31
0.0
  0
LINE
  5
335
330
1F
100
AcDbEntity
  8
0
  6
Continuous
 62
     7
370
    25
100
AcDbLine
 10
3866.683997455526
 20
3771.808914285713
 30
0.0
 11
3866.683997455526
 21
3770.808914285713
 31
0.0
  0
LINE
  5
336
330
1F
100
AcDbEntity
  8
0
  6
Continuous
 62
     7
370
    25
100
AcDbLine
 10
3871.683997455527
 20
3771.808914285713
 30
0.0
 11
3871.683997455527
 21
3770.808914285713
 31
0.0
  0
LINE
  5
337
330
1F
100
AcDbEntity
  8
0
  6
Continuous
 62
     7
370
    25
100
AcDbLine
 10
3867.10142176057
 20
3770.808914285713
 30
0.0
 11
3871.683997455527
 21
3770.808914285713
 31
0.0
  0
LINE
  5
338
330
1F
100
AcDbEntity
  8
0
  6
Continuous
 62
     7
370
    25
100
AcDbLine
 10
3866.683997455526
 20
3771.808914285713
 30
0.0
 11
3871.683997455527
 21
3771.808914285713
 31
0.0
  0
LINE
  5
339
330
1F
100
AcDbEntity
  8
0
  6
Continuous
 62
     7
370
    25
100
AcDbLine
 10
3916.683997455526
 20
3771.808914285713
 30
0.0
 11
3916.683997455526
 21
3770.808914285713
 31
0.0
  0
LINE
  5
33A
330
1F
100
AcDbEntity
  8
0
  6
Continuous
 62
     7
370
    25
100
AcDbLine
 10
3871.683997455527
 20
3770.808914285713
 30
0.0
 11
3916.683997455526
 21
3770.808914285713
 31
0.0
  0
LINE
  5
33B
330
1F
100
AcDbEntity
  8
0
  6
Continuous
 62
     7
370
    25
100
AcDbLine
 10
3871.683997455527
 20
3771.808914285713
 30
0.0
 11
3916.683997455526
 21
3771.808914285713
 31
0.0
  0
LINE
  5
33C
330
1F
100
AcDbEntity
  8
0
  6
Continuous
 62
     7
370
    25
100
AcDbLine
 10
3921.683997455526
 20
3771.808914285713
 30
0.0
 11
3921.683997455526
 21
3770.808914285713
 31
0.0
  0
LINE
  5
33D
330
1F
100
AcDbEntity
  8
0
  6
Continuous
 62
     7
370
    25
100
AcDbLine
 10
3916.683997455526
 20
3770.808914285713
 30
0.0
 11
3921.266573150481
 21
3770.808914285713
 31
0.0
  0
LINE
  5
33E
330
1F
100
AcDbEntity
  8
0
  6
Continuous
 62
     7
370
    25
100
AcDbLine
 10
3916.683997455526
 20
3771.808914285713
 30
0.0
 11
3921.683997455526
 21
3771.808914285713
 31
0.0
  0
LINE
  5
33F
330
1F
100
AcDbEntity
  8
0
  6
Continuous
 62
     7
370
    25
100
AcDbLine
 10
3591.043033821783
 20
3771.808914285713
 30
0.0
 11
3574.043033821784
 21
3771.808914285713
 31
0.0
  0
LINE
  5
340
330
1F
100
AcDbEntity
  8
0
  6
Continuous
 62
     7
370
    25
100
AcDbLine
 10
3590.043033821783
 20
3772.808914285714
 30
0.0
 11
3575.043033821784
 21
3772.808914285714
 31
0.0
  0
LINE
  5
341
330
1F
100
AcDbEntity
  8
0
  6
Continuous
 62
     7
370
    25
100
AcDbLine
 10
4031.613890795621
 20
3771.808914285713
 30
0.0
 11
4014.613890795621
 21
3771.808914285713
 31
0.0
  0
LINE
  5
342
330
1F
100
AcDbEntity
  8
0
  6
Continuous
 62
     7
370
    25
100
AcDbLine
 10
4030.613890795621
 20
3772.808914285714
 30
0.0
 11
4015.613890795622
 21
3772.808914285714
 31
0.0
  0
LINE
  5
343
330
1F
100
AcDbEntity
  8
0
  6
Continuous
 62
     7
370
    25
100
AcDbLine
 10
3537.254421633235
 20
3840.804081266739
 30
0.0
 11
3537.018050031874
 21
3840.804164570599
 31
0.0
  0
LWPOLYLINE
  5
344
330
1F
100
AcDbEntity
  8
0
  6
Continuous
 62
     7
370
    25
100
AcDbPolyline
 90
        3
 70
   128
 43
0.0
 10
3540.09094219573
 20
3840.803081598801
 10
3539.964312946641
 20
3840.81113148263
 10
3539.838382909969
 20
3840.803170607646
  0
LWPOLYLINE
  5
345
330
1F
100
AcDbEntity
  8
0
  6
Continuous
 62
     7
370
    25
100
AcDbPolyline
 90
        3
 70
   128
 43
0.0
 10
3542.926966924928
 20
3840.802082105607
 10
3542.792740018241
 20
3840.81113148263
 10
3542.659211621361
 20
3840.802176469948
  0
LWPOLYLINE
  5
346
330
1F
100
AcDbEntity
  8
0
  6
Continuous
 62
     7
370
    25
100
AcDbPolyline
 90
        3
 70
   128
 43
0.0
 10
3545.762575965814
 20
3840.801082758915
 10
3545.621167089835
 20
3840.81113148263
 10
3545.480456021063
 20
3840.801182185749
  0
LWPOLYLINE
  5
347
330
1F
100
AcDbEntity
  8
0
  6
Continuous
 62
     7
370
    25
100
AcDbPolyline
 90
        3
 70
   128
 43
0.0
 10
3548.597829895981
 20
3840.800083537371
 10
3548.449594161346
 20
3840.811131482638
 10
3548.302055531285
 20
3840.800187776401
  0
LWPOLYLINE
  5
348
330
1F
100
AcDbEntity
  8
0
  6
Continuous
 62
     7
370
    25
100
AcDbPolyline
 90
        3
 70
   128
 43
0.0
 10
3551.432775827219
 20
3840.799084424376
 10
3551.27802123294
 20
3840.811131482634
 10
3551.123963040637
 20
3840.799193258504
  0
ARC
  5
349
330
1F
100
AcDbEntity
  8
0
  6
Continuous
 62
     7
370
    25
100
AcDbCircle
 10
3554.106448304541
 20
3839.811131501434
 30
0.0
 40
0.9999999811995131
100
AcDbArc
 50
61.60338525763309
 51
105.88464674833
  0
ARC
  5
34A
330
1F
100
AcDbEntity
  8
0
  6
Continuous
 62
     7
370
    25
100
AcDbCircle
 10
3556.934875376092
 20
3839.811131501526
 30
0.0
 40
0.9999999811229557
100
AcDbArc
 50
19.47122063160432
 51
147.6196125717231
  0
ARC
  5
34B
330
1F
100
AcDbEntity
  8
0
  6
Continuous
 62
     7
370
    25
100
AcDbCircle
 10
3558.34908891184
 20
3840.311131492033
 30
0.0
 40
0.499999990611541
100
AcDbArc
 50
199.471220631667
 51
340.5287793701816
  0
ARC
  5
34C
330
1F
100
AcDbEntity
  8
0
  6
Continuous
 62
     7
370
    25
100
AcDbCircle
 10
3559.142620565441
 20
3840.030575685432
 30
0.0
 40
0.3416674293864309
100
AcDbArc
 50
67.67674054826414
 51
160.5287793702182
  0
ARC
  5
34D
330
1F
100
AcDbEntity
  8
0
  6
Continuous
 62
     7
370
    25
100
AcDbCircle
 10
3556.918255236741
 20
3834.613277730333
 30
0.0
 40
6.197853752399701
100
AcDbArc
 50
22.32325945084513
 51
67.67674054824387
  0
ARC
  5
34E
330
1F
100
AcDbEntity
  8
0
  6
Continuous
 62
     7
370
    25
100
AcDbCircle
 10
3562.335553191843
 20
3836.837643058934
 30
0.0
 40
0.3416674294206694
100
AcDbArc
 50
289.4714181102735
 51
22.32325945086221
  0
ARC
  5
34F
330
1F
100
AcDbEntity
  8
0
  6
Continuous
 62
     7
370
    25
100
AcDbCircle
 10
3562.616111733508
 20
3836.044112372294
 30
0.0
 40
0.4999999906097646
100
AcDbArc
 50
109.4714181104437
 51
250.5286849392066
  0
ARC
  5
350
330
1F
100
AcDbEntity
  8
0
  6
Continuous
 62
     7
370
    25
100
AcDbCircle
 10
3562.116109413132
 20
3834.629899663126
 30
0.0
 40
0.9999999784423639
100
AcDbArc
 50
302.9645190989474
 51
70.52868493928809
  0
ARC
  5
351
330
1F
100
AcDbEntity
  8
0
  6
Continuous
 62
     7
370
    25
100
AcDbCircle
 10
3562.116109405002
 20
3831.801472591576
 30
0.0
 40
0.9999999812000918
100
AcDbArc
 50
346.5591912218297
 51
26.16198930751666
  0
LWPOLYLINE
  5
352
330
1F
100
AcDbEntity
  8
0
  6
Continuous
 62
     7
370
    25
100
AcDbPolyline
 90
        3
 70
   128
 43
0.0
 10
3563.115805885381
 20
3823.291555843031
 10
3563.116109386207
 20
3823.316191376876
 10
3563.115823001524
 20
3823.340122263574
  0
LWPOLYLINE
  5
353
330
1F
100
AcDbEntity
  8
0
  6
Continuous
 62
     7
370
    25
100
AcDbPolyline
 90
        3
 70
   128
 43
0.0
 10
3563.11479972093
 20
3820.436601669684
 10
3563.116109386207
 20
3820.48776430528
 10
3563.114835535083
 20
3820.538222996331
  0
LWPOLYLINE
  5
354
330
1F
100
AcDbEntity
  8
0
  6
Continuous
 62
     7
370
    25
100
AcDbPolyline
 90
        3
 70
   128
 43
0.0
 10
3563.113796983181
 20
3817.591370633371
 10
3563.116109386207
 20
3817.65933723368
 10
3563.113844641942
 20
3817.726600592054
  0
LINE
  5
355
330
1F
100
AcDbEntity
  8
0
  6
Continuous
 62
     7
370
    25
100
AcDbLine
 10
3563.112795452965
 20
3814.749565929512
 30
0.0
 11
3563.112852541266
 21
3814.911551855413
 31
0.0
  0
LINE
  5
356
330
1F
100
AcDbEntity
  8
0
  6
Continuous
 62
     7
370
    25
100
AcDbLine
 10
3563.10641597007
 20
3796.648020694994
 30
0.0
 11
3563.106513627686
 21
3796.925120546155
 31
0.0
  0
LWPOLYLINE
  5
357
330
1F
100
AcDbEntity
  8
0
  6
Continuous
 62
     7
370
    25
100
AcDbPolyline
 90
        3
 70
   128
 43
0.0
 10
3563.105416706146
 20
3793.81264650746
 10
3563.116109411395
 20
3793.958492577516
 10
3563.105519260719
 20
3794.103641293187
  0
LWPOLYLINE
  5
358
330
1F
100
AcDbEntity
  8
0
  6
Continuous
 62
     7
370
    25
100
AcDbPolyline
 90
        3
 70
   128
 43
0.0
 10
3563.104417556226
 20
3790.977595802629
 10
3563.116109411395
 20
3791.130065505917
 10
3563.104524779748
 20
3791.281838557431
  0
LWPOLYLINE
  5
359
330
1F
100
AcDbEntity
  8
0
  6
Continuous
 62
     7
370
    25
100
AcDbPolyline
 90
        3
 70
   128
 43
0.0
 10
3563.103418506011
 20
3788.142828008945
 10
3563.116109411392
 20
3788.301638434319
 10
3563.103530199072
 20
3788.459752910519
  0
LWPOLYLINE
  5
35A
330
1F
100
AcDbEntity
  8
0
  6
Continuous
 62
     7
370
    25
100
AcDbPolyline
 90
        3
 70
   128
 43
0.0
 10
3563.102419543974
 20
3785.308310417283
 10
3563.116109411385
 20
3785.47321136281
 10
3563.102535530216
 20
3785.637417061797
  0
LWPOLYLINE
  5
35B
330
1F
100
AcDbEntity
  8
0
  6
Continuous
 62
     7
370
    25
100
AcDbPolyline
 90
        3
 70
   128
 43
0.0
 10
3563.101420660661
 20
3782.474016198487
 10
3563.116109411382
 20
3782.644784291215
 10
3563.101540782639
 20
3782.81485784
  0
ARC
  5
35C
330
1F
100
AcDbEntity
  8
0
  6
Continuous
 62
     7
370
    25
100
AcDbCircle
 10
3562.11610943018
 20
3779.816357219616
 30
0.0
 40
0.9999999811578268
100
AcDbArc
 50
331.3116751099185
 51
16.25361814713297
  0
ARC
  5
35D
330
1F
100
AcDbEntity
  8
0
  6
Continuous
 62
     7
370
    25
100
AcDbCircle
 10
3562.11610943694
 20
3776.987930147067
 30
0.0
 40
0.999999979319144
100
AcDbArc
 50
289.4712204041363
 51
57.66583690219088
  0
ARC
  5
35E
330
1F
100
AcDbEntity
  8
0
  6
Continuous
 62
     7
370
    25
100
AcDbCircle
 10
3562.616109420777
 20
3775.573716612317
 30
0.0
 40
0.4999999902722464
100
AcDbArc
 50
109.4712204041245
 51
250.5287793638418
  0
ARC
  5
35F
330
1F
100
AcDbEntity
  8
0
  6
Continuous
 62
     7
370
    25
100
AcDbCircle
 10
3562.335553614076
 20
3774.780184958715
 30
0.0
 40
0.3416674297590967
100
AcDbArc
 50
337.6767405491199
 51
70.52877936375501
  0
ARC
  5
360
330
1F
100
AcDbEntity
  8
0
  6
Continuous
 62
     7
370
    25
100
AcDbCircle
 10
3556.918255658974
 20
3777.004550287315
 30
0.0
 40
6.197853752401307
100
AcDbArc
 50
292.3232594517599
 51
337.6767405491515
  0
ARC
  5
361
330
1F
100
AcDbEntity
  8
0
  6
Continuous
 62
     7
370
    25
100
AcDbCircle
 10
3559.142620987675
 20
3771.587252332215
 30
0.0
 40
0.3416674293952324
100
AcDbArc
 50
199.471220629752
 51
292.3232594517783
  0
ARC
  5
362
330
1F
100
AcDbEntity
  8
0
  6
Continuous
 62
     7
370
    25
100
AcDbCircle
 10
3558.349089334666
 20
3771.306696525825
 30
0.0
 40
0.4999999899736546
100
AcDbArc
 50
19.47122062974043
 51
160.5287793033605
  0
ARC
  5
363
330
1F
100
AcDbEntity
  8
0
  6
Continuous
 62
     7
370
    25
100
AcDbCircle
 10
3556.934875799026
 20
3771.806696518098
 30
0.0
 40
0.9999999822463569
100
AcDbArc
 50
213.2503751281138
 51
340.5287793033883
  0
ARC
  5
364
330
1F
100
AcDbEntity
  8
0
  6
Continuous
 62
     7
370
    25
100
AcDbCircle
 10
3554.106448726776
 20
3771.806696516842
 30
0.0
 40
0.9999999812131489
100
AcDbArc
 50
257.6407278065583
 51
295.1218615754791
  0
LINE
  5
365
330
1F
100
AcDbEntity
  8
0
  6
Continuous
 62
     7
370
    25
100
AcDbLine
 10
3518.981173417099
 20
3770.808914285713
 30
0.0
 11
3519.21149144557
 21
3770.808914285713
 31
0.0
  0
LWPOLYLINE
  5
366
330
1F
100
AcDbEntity
  8
0
  6
Continuous
 62
     7
370
    25
100
AcDbPolyline
 90
        3
 70
   128
 43
0.0
 10
3516.132135196477
 20
3770.811520994818
 10
3516.267905359735
 20
3770.802261355568
 10
3516.402977161006
 20
3770.811425542653
  0
LWPOLYLINE
  5
367
330
1F
100
AcDbEntity
  8
0
  6
Continuous
 62
     7
370
    25
100
AcDbPolyline
 90
        3
 70
   128
 43
0.0
 10
3513.296605374565
 20
3770.812520313592
 10
3513.439478288143
 20
3770.802261355573
 10
3513.581653542333
 20
3770.81241985477
  0
LWPOLYLINE
  5
368
330
1F
100
AcDbEntity
  8
0
  6
Continuous
 62
     7
370
    25
100
AcDbPolyline
 90
        3
 70
   128
 43
0.0
 10
3510.461419787886
 20
3770.813519511049
 10
3510.611051216636
 20
3770.802261355568
 10
3510.759985688632
 20
3770.813414288205
  0
LWPOLYLINE
  5
369
330
1F
100
AcDbEntity
  8
0
  6
Continuous
 62
     7
370
    25
100
AcDbPolyline
 90
        3
 70
   128
 43
0.0
 10
3507.6265336128
 20
3770.814518602985
 10
3507.782624145041
 20
3770.802261355568
 10
3507.938018423128
 20
3770.814408827161
  0
LWPOLYLINE
  5
36A
330
1F
100
AcDbEntity
  8
0
  6
Continuous
 62
     7
370
    25
100
AcDbPolyline
 90
        3
 70
   128
 43
0.0
 10
3504.791911016342
 20
3770.815517602027
 10
3504.954197073447
 20
3770.802261355578
 10
3505.11578757901
 20
3770.81540345901
  0
ARC
  5
36B
330
1F
100
AcDbEntity
  8
0
  6
Continuous
 62
     7
370
    25
100
AcDbCircle
 10
3502.12577000191
 20
3771.802261336802
 30
0.0
 40
0.9999999812003119
100
AcDbArc
 50
241.7183932266152
 51
285.9338168068312
  0
ARC
  5
36C
330
1F
100
AcDbEntity
  8
0
  6
Continuous
 62
     7
370
    25
100
AcDbCircle
 10
3499.29734293031
 20
3771.80226133682
 30
0.0
 40
0.9999999812191065
100
AcDbArc
 50
199.471220634958
 51
327.4604829957255
  0
ARC
  5
36D
330
1F
100
AcDbEntity
  8
0
  6
Continuous
 62
     7
370
    25
100
AcDbCircle
 10
3497.88312939451
 20
3771.302261346202
 30
0.0
 40
0.499999990600416
100
AcDbArc
 50
19.47122063496794
 51
160.5287793623785
  0
ARC
  5
36E
330
1F
100
AcDbEntity
  8
0
  6
Continuous
 62
     7
370
    25
100
AcDbCircle
 10
3497.089597740937
 20
3771.582817152914
 30
0.0
 40
0.3416674294072832
100
AcDbArc
 50
247.6767405483818
 51
340.5287793624462
  0
ARC
  5
36F
330
1F
100
AcDbEntity
  8
0
  6
Continuous
 62
     7
370
    25
100
AcDbCircle
 10
3499.31396306961
 20
3777.000115108002
 30
0.0
 40
6.197853752399672
100
AcDbArc
 50
202.3232594515571
 51
247.6767405484445
  0
ARC
  5
370
330
1F
100
AcDbEntity
  8
0
  6
Continuous
 62
     7
370
    25
100
AcDbCircle
 10
3493.896665114522
 20
3774.775749779329
 30
0.0
 40
0.3416674294075311
100
AcDbArc
 50
109.4712206376011
 51
202.3232594515203
  0
ARC
  5
371
330
1F
100
AcDbEntity
  8
0
  6
Continuous
 62
     7
370
    25
100
AcDbCircle
 10
3493.61610930781
 20
3775.569281432902
 30
0.0
 40
0.499999990599823
100
AcDbArc
 50
289.4712206375905
 51
70.5287796571948
  0
ARC
  5
372
330
1F
100
AcDbEntity
  8
0
  6
Continuous
 62
     7
370
    25
100
AcDbCircle
 10
3494.116109290317
 20
3776.983494968702
 30
0.0
 40
0.999999978517077
100
AcDbArc
 50
123.6780869195749
 51
250.5287796571611
  0
ARC
  5
373
330
1F
100
AcDbEntity
  8
0
  6
Continuous
 62
     7
370
    25
100
AcDbCircle
 10
3494.116109298417
 20
3779.811922040293
 30
0.0
 40
0.9999999812087835
100
AcDbArc
 50
169.1092468194898
 51
203.6453311306565
  0
LWPOLYLINE
  5
374
330
1F
100
AcDbEntity
  8
0
  6
Continuous
 62
     7
370
    25
100
AcDbPolyline
 90
        3
 70
   128
 43
0.0
 10
3493.116821904688
 20
3826.186807770664
 10
3493.116108895142
 20
3826.149051834944
 10
3493.116795540462
 20
3826.112000260995
  0
LWPOLYLINE
  5
375
330
1F
100
AcDbEntity
  8
0
  6
Continuous
 62
     7
370
    25
100
AcDbPolyline
 90
        3
 70
   128
 43
0.0
 10
3493.117826058514
 20
3829.036056871933
 10
3493.116108895142
 20
3828.977478906539
 10
3493.117785017528
 20
3828.919604600315
  0
ARC
  5
376
330
1F
100
AcDbEntity
  8
0
  6
Continuous
 62
     7
370
    25
100
AcDbCircle
 10
3494.116108876354
 20
3831.805905978039
 30
0.0
 40
0.9999999812069193
100
AcDbArc
 50
153.3339796973397
 51
194.1172475694257
  0
ARC
  5
377
330
1F
100
AcDbEntity
  8
0
  6
Continuous
 62
     7
370
    25
100
AcDbCircle
 10
3494.116108876384
 20
3834.63433304964
 30
0.0
 40
0.9999999812217971
100
AcDbArc
 50
109.471220635317
 51
237.0673268130697
  0
ARC
  5
378
330
1F
100
AcDbEntity
  8
0
  6
Continuous
 62
     7
370
    25
100
AcDbCircle
 10
3493.616108885755
 20
3836.04854658544
 30
0.0
 40
0.4999999906003425
100
AcDbArc
 50
289.4712206354139
 51
70.52877936379488
  0
ARC
  5
379
330
1F
100
AcDbEntity
  8
0
  6
Continuous
 62
     7
370
    25
100
AcDbCircle
 10
3493.896664692455
 20
3836.842078239039
 30
0.0
 40
0.3416674294290041
100
AcDbArc
 50
157.6767405482571
 51
250.5287793638399
  0
ARC
  5
37A
330
1F
100
AcDbEntity
  8
0
  6
Continuous
 62
     7
370
    25
100
AcDbCircle
 10
3499.313962647555
 20
3834.61771291034
 30
0.0
 40
6.197853752442344
100
AcDbArc
 50
112.3232594517533
 51
157.6767405482467
  0
ARC
  5
37B
330
1F
100
AcDbEntity
  8
0
  6
Continuous
 62
     7
370
    25
100
AcDbCircle
 10
3497.089597318856
 20
3840.03501086544
 30
0.0
 40
0.3416674294291556
100
AcDbArc
 50
19.47122063623281
 51
112.3232594517138
  0
ARC
  5
37C
330
1F
100
AcDbEntity
  8
0
  6
Continuous
 62
     7
370
    25
100
AcDbCircle
 10
3497.883128972456
 20
3840.31556667214
 30
0.0
 40
0.4999999906002124
100
AcDbArc
 50
199.4712206362059
 51
340.5287793654115
  0
ARC
  5
37D
330
1F
100
AcDbEntity
  8
0
  6
Continuous
 62
     7
370
    25
100
AcDbCircle
 10
3499.297342508254
 20
3839.815566681533
 30
0.0
 40
0.9999999812136422
100
AcDbArc
 50
33.04553679551628
 51
160.5287793654573
  0
ARC
  5
37E
330
1F
100
AcDbEntity
  8
0
  6
Continuous
 62
     7
370
    25
100
AcDbCircle
 10
3502.125769579856
 20
3839.815566681544
 30
0.0
 40
0.9999999812003046
100
AcDbArc
 50
76.3719507183735
 51
116.2171713048624
  0
LWPOLYLINE
  5
37F
330
1F
100
AcDbEntity
  8
0
  6
Continuous
 62
     7
370
    25
100
AcDbPolyline
 90
        3
 70
   128
 43
0.0
 10
3504.968829406588
 20
3840.815459598296
 10
3504.954196651342
 20
3840.815566662794
 10
3504.940268679229
 20
3840.815469663883
  0
LWPOLYLINE
  5
380
330
1F
100
AcDbEntity
  8
0
  6
Continuous
 62
     7
370
    25
100
AcDbPolyline
 90
        3
 70
   128
 43
0.0
 10
3507.829841129544
 20
3840.814451298999
 10
3507.782623722955
 20
3840.815566662781
 10
3507.736110396887
 20
3840.81448433229
  0
LWPOLYLINE
  5
381
330
1F
100
AcDbEntity
  8
0
  6
Continuous
 62
     7
370
    25
100
AcDbPolyline
 90
        3
 70
   128
 43
0.0
 10
3510.67610804034
 20
3840.813448196179
 10
3510.611050794552
 20
3840.815566662783
 10
3510.546696926684
 20
3840.813493804218
  0
LWPOLYLINE
  5
382
330
1F
100
AcDbEntity
  8
0
  6
Continuous
 62
     7
370
    25
100
AcDbPolyline
 90
        3
 70
   128
 43
0.0
 10
3513.518412079036
 20
3840.812446489984
 10
3513.439477866062
 20
3840.815566662771
 10
3513.361246328376
 20
3840.812501879521
  0
LWPOLYLINE
  5
383
330
1F
100
AcDbEntity
  8
0
  6
Continuous
 62
     7
370
    25
100
AcDbPolyline
 90
        3
 70
   128
 43
0.0
 10
3516.358598274332
 20
3840.811445530175
 10
3516.267904937658
 20
3840.815566662779
 10
3516.177913573674
 20
3840.811509208438
  0
LINE
  5
384
330
1F
100
AcDbEntity
  8
0
  6
Continuous
 62
     7
370
    25
100
AcDbLine
 10
3519.197411115555
 20
3840.810445054375
 30
0.0
 11
3518.995954173032
 21
3840.810516053347
 31
0.0
  0
LWPOLYLINE
  5
385
330
1F
100
AcDbEntity
  8
0
  6
Continuous
 62
     7
370
    25
100
AcDbPolyline
 90
        3
 70
   128
 43
0.0
 10
4113.114211312983
 20
3820.426180673587
 10
4113.116109386207
 20
3820.48776430528
 10
4113.114211312983
 20
3820.549347936975
  0
LWPOLYLINE
  5
386
330
1F
100
AcDbEntity
  8
0
  6
Continuous
 62
     7
370
    25
100
AcDbPolyline
 90
        3
 70
   128
 43
0.0
 10
4113.114211312983
 20
3817.597753601987
 10
4113.116109386207
 20
3817.65933723368
 10
4113.114211312983
 20
3817.720920865374
  0
LINE
  5
387
330
1F
100
AcDbEntity
  8
0
  6
Continuous
 62
     7
370
    25
100
AcDbLine
 10
4113.114211312983
 20
3814.769326530638
 30
0.0
 11
4113.114211312983
 21
3814.892493793613
 31
0.0
  0
LINE
  5
388
330
1F
100
AcDbEntity
  8
0
  6
Continuous
 62
     7
370
    25
100
AcDbLine
 10
4113.114211312983
 20
3796.725335609437
 30
0.0
 11
4113.114211312983
 21
3796.848503688706
 31
0.0
  0
LWPOLYLINE
  5
389
330
1F
100
AcDbEntity
  8
0
  6
Continuous
 62
     7
370
    25
100
AcDbPolyline
 90
        3
 70
   128
 43
0.0
 10
4113.114211312983
 20
3793.896908537592
 10
4113.116109411394
 20
3793.958492577516
 10
4113.114211312983
 20
3794.02007661744
  0
LWPOLYLINE
  5
38A
330
1F
100
AcDbEntity
  8
0
  6
Continuous
 62
     7
370
    25
100
AcDbPolyline
 90
        3
 70
   128
 43
0.0
 10
4113.114211312983
 20
3791.068481466004
 10
4113.116109411394
 20
3791.130065505917
 10
4113.114211312983
 20
3791.191649545831
  0
LWPOLYLINE
  5
38B
330
1F
100
AcDbEntity
  8
0
  6
Continuous
 62
     7
370
    25
100
AcDbPolyline
 90
        3
 70
   128
 43
0.0
 10
4113.114211312983
 20
3788.240054394434
 10
4113.116109411391
 20
3788.301638434319
 10
4113.114211312983
 20
3788.363222474193
  0
LWPOLYLINE
  5
38C
330
1F
100
AcDbEntity
  8
0
  6
Continuous
 62
     7
370
    25
100
AcDbPolyline
 90
        3
 70
   128
 43
0.0
 10
4113.114211312983
 20
3785.411627323044
 10
4113.116109411385
 20
3785.47321136281
 10
4113.114211312983
 20
3785.53479540259
  0
LWPOLYLINE
  5
38D
330
1F
100
AcDbEntity
  8
0
  6
Continuous
 62
     7
370
    25
100
AcDbPolyline
 90
        3
 70
   128
 43
0.0
 10
4113.114211312983
 20
3782.583200251488
 10
4113.116109411381
 20
3782.644784291215
 10
4113.114211312983
 20
3782.70636833094
  0
ARC
  5
38E
330
1F
100
AcDbEntity
  8
0
  6
Continuous
 62
     7
370
    25
100
AcDbCircle
 10
4112.116109430179
 20
3779.816357219616
 30
0.0
 40
0.9999999811575532
100
AcDbArc
 50
333.4145218338473
 51
14.03611896000937
  0
ARC
  5
38F
330
1F
100
AcDbEntity
  8
0
  6
Continuous
 62
     7
370
    25
100
AcDbCircle
 10
4112.116109436939
 20
3776.987930147067
 30
0.0
 40
0.9999999793183659
100
AcDbArc
 50
289.4712204041363
 51
57.0418958920354
  0
ARC
  5
390
330
1F
100
AcDbEntity
  8
0
  6
Continuous
 62
     7
370
    25
100
AcDbCircle
 10
4112.616109420777
 20
3775.573716612317
 30
0.0
 40
0.499999990272398
100
AcDbArc
 50
109.4712204041245
 51
250.5287793637926
  0
ARC
  5
391
330
1F
100
AcDbEntity
  8
0
  6
Continuous
 62
     7
370
    25
100
AcDbCircle
 10
4112.335553614076
 20
3774.780184958715
 30
0.0
 40
0.3416674297590967
100
AcDbArc
 50
337.6767405490909
 51
70.52877936375501
  0
ARC
  5
392
330
1F
100
AcDbEntity
  8
0
  6
Continuous
 62
     7
370
    25
100
AcDbCircle
 10
4106.918255658975
 20
3777.004550287315
 30
0.0
 40
6.197853752401135
100
AcDbArc
 50
292.3232594517561
 51
337.6767405491482
  0
ARC
  5
393
330
1F
100
AcDbEntity
  8
0
  6
Continuous
 62
     7
370
    25
100
AcDbCircle
 10
4109.142620987674
 20
3771.587252332215
 30
0.0
 40
0.3416674293939462
100
AcDbArc
 50
199.4712206298283
 51
292.3232594518488
  0
ARC
  5
394
330
1F
100
AcDbEntity
  8
0
  6
Continuous
 62
     7
370
    25
100
AcDbCircle
 10
4108.349089334666
 20
3771.306696525825
 30
0.0
 40
0.4999999899740834
100
AcDbArc
 50
19.47122062972306
 51
160.5287793033605
  0
ARC
  5
395
330
1F
100
AcDbEntity
  8
0
  6
Continuous
 62
     7
370
    25
100
AcDbCircle
 10
4106.934875799027
 20
3771.806696518098
 30
0.0
 40
0.9999999822467696
100
AcDbArc
 50
213.053615503171
 51
340.5287793033796
  0
ARC
  5
396
330
1F
100
AcDbEntity
  8
0
  6
Continuous
 62
     7
370
    25
100
AcDbCircle
 10
4104.106448726775
 20
3771.806696516842
 30
0.0
 40
0.9999999812130702
100
AcDbArc
 50
256.378703092765
 51
296.204798766281
  0
LINE
  5
397
330
1F
100
AcDbEntity
  8
0
  6
Continuous
 62
     7
370
    25
100
AcDbLine
 10
4069.008234069642
 20
3770.806149575435
 30
0.0
 11
4069.184430793026
 21
3770.806149575435
 31
0.0
  0
LWPOLYLINE
  5
398
330
1F
100
AcDbEntity
  8
0
  6
Continuous
 62
     7
370
    25
100
AcDbPolyline
 90
        3
 70
   128
 43
0.0
 10
4066.179806998041
 20
3770.806149575435
 10
4066.267905359734
 20
3770.802261355568
 10
4066.356003721427
 20
3770.806149575435
  0
LWPOLYLINE
  5
399
330
1F
100
AcDbEntity
  8
0
  6
Continuous
 62
     7
370
    25
100
AcDbPolyline
 90
        3
 70
   128
 43
0.0
 10
4063.351379926493
 20
3770.806149575435
 10
4063.439478288143
 20
3770.802261355573
 10
4063.527576649779
 20
3770.806149575435
  0
LWPOLYLINE
  5
39A
330
1F
100
AcDbEntity
  8
0
  6
Continuous
 62
     7
370
    25
100
AcDbPolyline
 90
        3
 70
   128
 43
0.0
 10
4060.522952854947
 20
3770.806149575435
 10
4060.611051216636
 20
3770.802261355568
 10
4060.699149578334
 20
3770.806149575435
  0
LWPOLYLINE
  5
39B
330
1F
100
AcDbEntity
  8
0
  6
Continuous
 62
     7
370
    25
100
AcDbPolyline
 90
        3
 70
   128
 43
0.0
 10
4057.694525783346
 20
3770.806149575435
 10
4057.78262414504
 20
3770.802261355568
 10
4057.870722506734
 20
3770.806149575435
  0
LWPOLYLINE
  5
39C
330
1F
100
AcDbEntity
  8
0
  6
Continuous
 62
     7
370
    25
100
AcDbPolyline
 90
        3
 70
   128
 43
0.0
 10
4054.866098711851
 20
3770.806149575435
 10
4054.954197073446
 20
3770.802261355578
 10
4055.042295435043
 20
3770.806149575435
  0
ARC
  5
39D
330
1F
100
AcDbEntity
  8
0
  6
Continuous
 62
     7
370
    25
100
AcDbCircle
 10
4052.12577000191
 20
3771.802261336802
 30
0.0
 40
0.9999999812003911
100
AcDbArc
 50
243.093537848329
 51
284.376844179293
  0
ARC
  5
39E
330
1F
100
AcDbEntity
  8
0
  6
Continuous
 62
     7
370
    25
100
AcDbCircle
 10
4049.29734293031
 20
3771.80226133682
 30
0.0
 40
0.9999999812193788
100
AcDbArc
 50
199.471220634958
 51
327.1309706826335
  0
ARC
  5
39F
330
1F
100
AcDbEntity
  8
0
  6
Continuous
 62
     7
370
    25
100
AcDbCircle
 10
4047.883129394509
 20
3771.302261346202
 30
0.0
 40
0.499999990600416
100
AcDbArc
 50
19.47122063496794
 51
160.5287793623785
  0
ARC
  5
3A0
330
1F
100
AcDbEntity
  8
0
  6
Continuous
 62
     7
370
    25
100
AcDbCircle
 10
4047.089597740936
 20
3771.582817152914
 30
0.0
 40
0.3416674294072899
100
AcDbArc
 50
247.6767405484523
 51
340.5287793624716
  0
ARC
  5
3A1
330
1F
100
AcDbEntity
  8
0
  6
Continuous
 62
     7
370
    25
100
AcDbCircle
 10
4049.31396306961
 20
3777.000115108002
 30
0.0
 40
6.197853752399672
100
AcDbArc
 50
202.3232594515587
 51
247.6767405484445
  0
ARC
  5
3A2
330
1F
100
AcDbEntity
  8
0
  6
Continuous
 62
     7
370
    25
100
AcDbCircle
 10
4043.896665114522
 20
3774.775749779329
 30
0.0
 40
0.3416674294074415
100
AcDbArc
 50
109.4712206376011
 51
202.3232594515493
  0
ARC
  5
3A3
330
1F
100
AcDbEntity
  8
0
  6
Continuous
 62
     7
370
    25
100
AcDbCircle
 10
4043.61610930781
 20
3775.569281432902
 30
0.0
 40
0.499999990599823
100
AcDbArc
 50
289.4712206375905
 51
70.5287796571948
  0
ARC
  5
3A4
330
1F
100
AcDbEntity
  8
0
  6
Continuous
 62
     7
370
    25
100
AcDbCircle
 10
4044.116109290317
 20
3776.983494968702
 30
0.0
 40
0.9999999785169833
100
AcDbArc
 50
123.095024211858
 51
250.5287796571611
  0
ARC
  5
3A5
330
1F
100
AcDbEntity
  8
0
  6
Continuous
 62
     7
370
    25
100
AcDbCircle
 10
4044.116109298417
 20
3779.811922040293
 30
0.0
 40
0.9999999812088283
100
AcDbArc
 50
166.6020574958462
 51
206.0083578621412
  0
LWPOLYLINE
  5
3A6
330
1F
100
AcDbEntity
  8
0
  6
Continuous
 62
     7
370
    25
100
AcDbPolyline
 90
        3
 70
   128
 43
0.0
 10
4055.09111083186
 20
3840.806149575435
 10
4054.954196651342
 20
3840.815566662794
 10
4054.817282470826
 20
3840.806149575435
  0
LWPOLYLINE
  5
3A7
330
1F
100
AcDbEntity
  8
0
  6
Continuous
 62
     7
370
    25
100
AcDbPolyline
 90
        3
 70
   128
 43
0.0
 10
4057.919537903379
 20
3840.806149575435
 10
4057.782623722954
 20
3840.815566662781
 10
4057.645709542529
 20
3840.806149575435
  0
LWPOLYLINE
  5
3A8
330
1F
100
AcDbEntity
  8
0
  6
Continuous
 62
     7
370
    25
100
AcDbPolyline
 90
        3
 70
   128
 43
0.0
 10
4060.747964975003
 20
3840.806149575435
 10
4060.611050794551
 20
3840.815566662783
 10
4060.47413661411
 20
3840.806149575435
  0
LWPOLYLINE
  5
3A9
330
1F
100
AcDbEntity
  8
0
  6
Continuous
 62
     7
370
    25
100
AcDbPolyline
 90
        3
 70
   128
 43
0.0
 10
4063.576392046412
 20
3840.806149575435
 10
4063.439477866062
 20
3840.815566662771
 10
4063.302563685699
 20
3840.806149575435
  0
LWPOLYLINE
  5
3AA
330
1F
100
AcDbEntity
  8
0
  6
Continuous
 62
     7
370
    25
100
AcDbPolyline
 90
        3
 70
   128
 43
0.0
 10
4066.404819118067
 20
3840.806149575435
 10
4066.267904937657
 20
3840.815566662779
 10
4066.130990757247
 20
3840.806149575435
  0
LINE
  5
3AB
330
1F
100
AcDbEntity
  8
0
  6
Continuous
 62
     7
370
    25
100
AcDbLine
 10
4069.233246189622
 20
3840.806149575435
 30
0.0
 11
4068.959417828885
 21
3840.806149575435
 31
0.0
  0
ARC
  5
3AC
330
1F
100
AcDbEntity
  8
0
  6
Continuous
 62
     7
370
    25
100
AcDbCircle
 10
4106.934875376091
 20
3839.811131501526
 30
0.0
 40
0.9999999811231074
100
AcDbArc
 50
19.47122063159564
 51
147.2602486834909
  0
ARC
  5
3AD
330
1F
100
AcDbEntity
  8
0
  6
Continuous
 62
     7
370
    25
100
AcDbCircle
 10
4104.10644830454
 20
3839.811131501434
 30
0.0
 40
0.9999999811997504
100
AcDbArc
 50
62.80275492630625
 51
104.621412621971
  0
LWPOLYLINE
  5
3AE
330
1F
100
AcDbEntity
  8
0
  6
Continuous
 62
     7
370
    25
100
AcDbPolyline
 90
        3
 70
   128
 43
0.0
 10
4101.377715740376
 20
3840.806149575434
 10
4101.278021232939
 20
3840.811131482634
 10
4101.178326725503
 20
3840.806149575434
  0
LWPOLYLINE
  5
3AF
330
1F
100
AcDbEntity
  8
0
  6
Continuous
 62
     7
370
    25
100
AcDbPolyline
 90
        3
 70
   128
 43
0.0
 10
4098.549288668819
 20
3840.806149575435
 10
4098.449594161345
 20
3840.811131482638
 10
4098.34989965386
 20
3840.806149575435
  0
LWPOLYLINE
  5
3B0
330
1F
100
AcDbEntity
  8
0
  6
Continuous
 62
     7
370
    25
100
AcDbPolyline
 90
        3
 70
   128
 43
0.0
 10
4095.720861597224
 20
3840.806149575435
 10
4095.621167089834
 20
3840.81113148263
 10
4095.521472582457
 20
3840.806149575435
  0
LWPOLYLINE
  5
3B1
330
1F
100
AcDbEntity
  8
0
  6
Continuous
 62
     7
370
    25
100
AcDbPolyline
 90
        3
 70
   128
 43
0.0
 10
4092.892434525623
 20
3840.806149575435
 10
4092.79274001824
 20
3840.81113148263
 10
4092.693045510858
 20
3840.806149575435
  0
LWPOLYLINE
  5
3B2
330
1F
100
AcDbEntity
  8
0
  6
Continuous
 62
     7
370
    25
100
AcDbPolyline
 90
        3
 70
   128
 43
0.0
 10
4090.064007454023
 20
3840.806149575435
 10
4089.964312946641
 20
3840.81113148263
 10
4089.864618439258
 20
3840.806149575435
  0
LINE
  5
3B3
330
1F
100
AcDbEntity
  8
0
  6
Continuous
 62
     7
370
    25
100
AcDbLine
 10
4087.235580382423
 20
3840.806149575435
 30
0.0
 11
4087.036191367658
 21
3840.806149575435
 31
0.0
  0
ARC
  5
3B4
330
1F
100
AcDbEntity
  8
0
  6
Continuous
 62
     7
370
    25
100
AcDbCircle
 10
4052.125769579856
 20
3839.815566681544
 30
0.0
 40
0.9999999812000211
100
AcDbArc
 50
74.65559995920138
 51
117.8663952687865
  0
ARC
  5
3B5
330
1F
100
AcDbEntity
  8
0
  6
Continuous
 62
     7
370
    25
100
AcDbCircle
 10
4049.297342508253
 20
3839.815566681533
 30
0.0
 40
0.9999999812136422
100
AcDbArc
 50
32.55532278142574
 51
160.5287793654573
  0
ARC
  5
3B6
330
1F
100
AcDbEntity
  8
0
  6
Continuous
 62
     7
370
    25
100
AcDbCircle
 10
4047.883128972455
 20
3840.31556667214
 30
0.0
 40
0.4999999906002124
100
AcDbArc
 50
199.4712206362059
 51
340.5287793654115
  0
LWPOLYLINE
  5
3B7
330
1F
100
AcDbEntity
  8
0
  6
Continuous
 62
     7
370
    25
100
AcDbPolyline
 90
        3
 70
   128
 43
0.0
 10
4113.114211312983
 20
3823.25460774519
 10
4113.116109386207
 20
3823.316191376876
 10
4113.114211312985
 20
3823.377775008572
  0
LWPOLYLINE
  5
3B8
330
1F
100
AcDbEntity
  8
0
  6
Continuous
 62
     7
370
    25
100
AcDbPolyline
 90
        3
 70
   128
 43
0.0
 10
4113.114211312985
 20
3826.083034816755
 10
4113.116109386202
 20
3826.144618448383
 10
4113.114211312985
 20
3826.206202079998
  0
LWPOLYLINE
  5
3B9
330
1F
100
AcDbEntity
  8
0
  6
Continuous
 62
     7
370
    25
100
AcDbPolyline
 90
        3
 70
   128
 43
0.0
 10
4113.114211312985
 20
3828.911461888209
 10
4113.11610938621
 20
3828.973045519973
 10
4113.114211312985
 20
3829.034629151735
  0
ARC
  5
3BA
330
1F
100
AcDbEntity
  8
0
  6
Continuous
 62
     7
370
    25
100
AcDbCircle
 10
4112.116109405002
 20
3831.801472591576
 30
0.0
 40
0.9999999812009068
100
AcDbArc
 50
345.8885411428413
 51
26.73037615210131
  0
ARC
  5
3BB
330
1F
100
AcDbEntity
  8
0
  6
Continuous
 62
     7
370
    25
100
AcDbCircle
 10
4112.116109413131
 20
3834.629899663126
 30
0.0
 40
0.9999999784428418
100
AcDbArc
 50
302.8600325374664
 51
70.52868493926351
  0
ARC
  5
3BC
330
1F
100
AcDbEntity
  8
0
  6
Continuous
 62
     7
370
    25
100
AcDbCircle
 10
4112.616111733507
 20
3836.044112372294
 30
0.0
 40
0.499999990609613
100
AcDbArc
 50
109.4714181103945
 51
250.5286849392066
  0
ARC
  5
3BD
330
1F
100
AcDbEntity
  8
0
  6
Continuous
 62
     7
370
    25
100
AcDbCircle
 10
4112.335553191843
 20
3836.837643058934
 30
0.0
 40
0.3416674294206694
100
AcDbArc
 50
289.4714181103454
 51
22.32325945086221
  0
ARC
  5
3BE
330
1F
100
AcDbEntity
  8
0
  6
Continuous
 62
     7
370
    25
100
AcDbCircle
 10
4106.918255236741
 20
3834.613277730333
 30
0.0
 40
6.197853752399528
100
AcDbArc
 50
22.32325945084673
 51
67.67674054824777
  0
ARC
  5
3BF
330
1F
100
AcDbEntity
  8
0
  6
Continuous
 62
     7
370
    25
100
AcDbCircle
 10
4109.142620565441
 20
3840.030575685432
 30
0.0
 40
0.3416674293864309
100
AcDbArc
 50
67.67674054826414
 51
160.5287793702182
  0
ARC
  5
3C0
330
1F
100
AcDbEntity
  8
0
  6
Continuous
 62
     7
370
    25
100
AcDbCircle
 10
4108.34908891184
 20
3840.311131492033
 30
0.0
 40
0.4999999906111122
100
AcDbArc
 50
199.471220631667
 51
340.5287793701643
  0
ARC
  5
3C1
330
1F
100
AcDbEntity
  8
0
  6
Continuous
 62
     7
370
    25
100
AcDbCircle
 10
4049.313962647555
 20
3834.61771291034
 30
0.0
 40
6.197853752442344
100
AcDbArc
 50
112.3232594517533
 51
157.676740548245
  0
ARC
  5
3C2
330
1F
100
AcDbEntity
  8
0
  6
Continuous
 62
     7
370
    25
100
AcDbCircle
 10
4043.896664692455
 20
3836.842078239039
 30
0.0
 40
0.3416674294291556
100
AcDbArc
 50
157.6767405482571
 51
250.528779363768
  0
ARC
  5
3C3
330
1F
100
AcDbEntity
  8
0
  6
Continuous
 62
     7
370
    25
100
AcDbCircle
 10
4043.616108885755
 20
3836.04854658544
 30
0.0
 40
0.4999999906003425
100
AcDbArc
 50
289.4712206354139
 51
70.52877936379488
  0
ARC
  5
3C4
330
1F
100
AcDbEntity
  8
0
  6
Continuous
 62
     7
370
    25
100
AcDbCircle
 10
4044.116108876384
 20
3834.63433304964
 30
0.0
 40
0.9999999812217971
100
AcDbArc
 50
109.471220635317
 51
237.0032781203511
  0
ARC
  5
3C5
330
1F
100
AcDbEntity
  8
0
  6
Continuous
 62
     7
370
    25
100
AcDbCircle
 10
4044.116108876353
 20
3831.805905978039
 30
0.0
 40
0.9999999812068194
100
AcDbArc
 50
153.8428715854953
 51
193.4771569987486
  0
ARC
  5
3C6
330
1F
100
AcDbEntity
  8
0
  6
Continuous
 62
     7
370
    25
100
AcDbCircle
 10
4047.089597318855
 20
3840.03501086544
 30
0.0
 40
0.3416674294291556
100
AcDbArc
 50
19.47122063623281
 51
112.3232594517138
  0
LINE
  5
3C7
330
1F
100
AcDbEntity
  8
0
  6
Continuous
 62
     7
370
    25
100
AcDbLine
 10
3513.113890795623
 20
3758.808914285714
 30
0.0
 11
4093.113890795621
 21
3758.808914285714
 31
0.0
  0
LINE
  5
3C8
330
1F
100
AcDbEntity
  8
0
  6
Continuous
 62
     7
370
    25
100
AcDbLine
 10
3513.113890795623
 20
3767.808914285713
 30
0.0
 11
3513.113890795623
 21
3758.808914285714
 31
0.0
  0
LINE
  5
3C9
330
1F
100
AcDbEntity
  8
0
  6
Continuous
 62
     7
370
    25
100
AcDbLine
 10
4093.113890795621
 20
3767.808914285713
 30
0.0
 11
3513.113890795623
 21
3767.808914285713
 31
0.0
  0
LINE
  5
3CA
330
1F
100
AcDbEntity
  8
0
  6
Continuous
 62
     7
370
    25
100
AcDbLine
 10
4093.113890795621
 20
3767.808914285713
 30
0.0
 11
4093.113890795621
 21
3758.808914285714
 31
0.0
  0
LINE
  5
3CB
330
1F
100
AcDbEntity
  8
0
  6
Continuous
 62
     7
370
    25
100
AcDbLine
 10
3503.113890795623
 20
3758.808914285714
 30
0.0
 11
3513.113890795623
 21
3758.808914285714
 31
0.0
  0
LINE
  5
3CC
330
1F
100
AcDbEntity
  8
0
  6
Continuous
 62
     7
370
    25
100
AcDbLine
 10
3503.113890795623
 20
3767.808914285713
 30
0.0
 11
3503.113890795623
 21
3758.808914285714
 31
0.0
  0
LINE
  5
3CD
330
1F
100
AcDbEntity
  8
0
  6
Continuous
 62
     7
370
    25
100
AcDbLine
 10
3513.113890795623
 20
3767.808914285713
 30
0.0
 11
3503.113890795623
 21
3767.808914285713
 31
0.0
  0
LINE
  5
3CE
330
1F
100
AcDbEntity
  8
0
  6
Continuous
 62
     7
370
    25
100
AcDbLine
 10
3506.113890795622
 20
3770.808914285713
 30
0.0
 11
3507.667465130806
 21
3770.808914285713
 31
0.0
  0
LINE
  5
3CF
330
1F
100
AcDbEntity
  8
0
  6
Continuous
 62
     7
370
    25
100
AcDbLine
 10
3507.897783159275
 20
3770.808914285713
 30
0.0
 11
3510.495892202406
 21
3770.808914285713
 31
0.0
  0
LINE
  5
3D0
330
1F
100
AcDbEntity
  8
0
  6
Continuous
 62
     7
370
    25
100
AcDbLine
 10
3510.726210230876
 20
3770.808914285713
 30
0.0
 11
3513.113890795623
 21
3770.808914285713
 31
0.0
  0
LINE
  5
3D1
330
1F
100
AcDbEntity
  8
0
  6
Continuous
 62
     7
370
    25
100
AcDbLine
 10
3513.113890795623
 20
3770.808914285713
 30
0.0
 11
3513.113890795623
 21
3767.808914285713
 31
0.0
  0
ARC
  5
3D2
330
1F
100
AcDbEntity
  8
0
  6
Continuous
 62
     7
370
    25
100
AcDbCircle
 10
3506.113890795622
 20
3767.808914285713
 30
0.0
 40
3.0
100
AcDbArc
 50
90.0
 51
180.0
  0
LINE
  5
3D3
330
1F
100
AcDbEntity
  8
0
  6
Continuous
 62
     7
370
    25
100
AcDbLine
 10
3513.113890795623
 20
3770.808914285713
 30
0.0
 11
3513.32431927394
 21
3770.808914285713
 31
0.0
  0
LINE
  5
3D4
330
1F
100
AcDbEntity
  8
0
  6
Continuous
 62
     7
370
    25
100
AcDbLine
 10
3513.554637302333
 20
3770.808914285713
 30
0.0
 11
3516.1527463455
 21
3770.808914285713
 31
0.0
  0
LINE
  5
3D5
330
1F
100
AcDbEntity
  8
0
  6
Continuous
 62
     7
370
    25
100
AcDbLine
 10
3516.38306437397
 20
3770.808914285713
 30
0.0
 11
3518.981173417099
 21
3770.808914285713
 31
0.0
  0
LINE
  5
3D6
330
1F
100
AcDbEntity
  8
0
  6
Continuous
 62
     7
370
    25
100
AcDbLine
 10
3519.21149144557
 20
3770.808914285713
 30
0.0
 11
3523.528575243284
 21
3770.808914285713
 31
0.0
  0
LINE
  5
3D7
330
1F
100
AcDbEntity
  8
0
  6
Continuous
 62
     7
370
    25
100
AcDbLine
 10
3553.557250949757
 20
3770.808914285713
 30
0.0
 11
3554.039886112116
 21
3770.808914285713
 31
0.0
  0
LINE
  5
3D8
330
1F
100
AcDbEntity
  8
0
  6
Continuous
 62
     7
370
    25
100
AcDbLine
 10
3554.173011341435
 20
3770.808914285713
 30
0.0
 11
3556.868313187662
 21
3770.808914285713
 31
0.0
  0
LINE
  5
3D9
330
1F
100
AcDbEntity
  8
0
  6
Continuous
 62
     7
370
    25
100
AcDbLine
 10
3557.001438410392
 20
3770.808914285713
 30
0.0
 11
3867.10142176057
 21
3770.808914285713
 31
0.0
  0
LINE
  5
3DA
330
1F
100
AcDbEntity
  8
0
  6
Continuous
 62
     7
370
    25
100
AcDbLine
 10
3921.266573150481
 20
3770.808914285713
 30
0.0
 11
4049.182183916347
 21
3770.808914285713
 31
0.0
  0
LINE
  5
3DB
330
1F
100
AcDbEntity
  8
0
  6
Continuous
 62
     7
370
    25
100
AcDbLine
 10
4049.412501944273
 20
3770.808914285713
 30
0.0
 11
4052.010610987959
 21
3770.808914285713
 31
0.0
  0
LINE
  5
3DC
330
1F
100
AcDbEntity
  8
0
  6
Continuous
 62
     7
370
    25
100
AcDbLine
 10
4052.24092901586
 20
3770.808914285713
 30
0.0
 11
4052.879080366623
 21
3770.808914285713
 31
0.0
  0
ARC
  5
3DD
330
1F
100
AcDbEntity
  8
0
  6
Continuous
 62
     7
370
    25
100
AcDbCircle
 10
4100.113890795621
 20
3767.808914285713
 30
0.0
 40
3.0
100
AcDbArc
 50
0.0
 51
87.53999961631405
  0
LINE
  5
3DE
330
1F
100
AcDbEntity
  8
0
  6
Continuous
 62
     7
370
    25
100
AcDbLine
 10
4103.113890795621
 20
3767.808914285713
 30
0.0
 11
4093.113890795621
 21
3767.808914285713
 31
0.0
  0
LINE
  5
3DF
330
1F
100
AcDbEntity
  8
0
  6
Continuous
 62
     7
370
    25
100
AcDbLine
 10
4093.113890795621
 20
3758.808914285714
 30
0.0
 11
4093.113890795621
 21
3755.808914285714
 31
0.0
  0
LINE
  5
3E0
330
1F
100
AcDbEntity
  8
0
  6
Continuous
 62
     7
370
    25
100
AcDbLine
 10
4093.113890795621
 20
3755.808914285714
 30
0.0
 11
3513.113890795623
 21
3755.808914285714
 31
0.0
  0
LINE
  5
3E1
330
1F
100
AcDbEntity
  8
0
  6
Continuous
 62
     7
370
    25
100
AcDbLine
 10
3513.113890795623
 20
3755.808914285714
 30
0.0
 11
3513.113890795623
 21
3758.808914285714
 31
0.0
  0
LINE
  5
3E2
330
1F
100
AcDbEntity
  8
0
  6
Continuous
 62
     7
370
    25
100
AcDbLine
 10
4093.113890795621
 20
3758.808914285714
 30
0.0
 11
4103.113890795621
 21
3758.808914285714
 31
0.0
  0
ARC
  5
3E3
330
1F
100
AcDbEntity
  8
0
  6
Continuous
 62
     7
370
    25
100
AcDbCircle
 10
4100.113890795621
 20
3758.808914285714
 30
0.0
 40
3.0
100
AcDbArc
 50
270.0000000000008
 51
0.0
  0
LINE
  5
3E4
330
1F
100
AcDbEntity
  8
0
  6
Continuous
 62
     7
370
    25
100
AcDbLine
 10
4100.113890795621
 20
3755.808914285714
 30
0.0
 11
4093.113890795621
 21
3755.808914285714
 31
0.0
  0
LINE
  5
3E5
330
1F
100
AcDbEntity
  8
0
  6
Continuous
 62
     7
370
    25
100
AcDbLine
 10
3513.113890795623
 20
3755.808914285714
 30
0.0
 11
3506.113890795622
 21
3755.808914285714
 31
0.0
  0
ARC
  5
3E6
330
1F
100
AcDbEntity
  8
0
  6
Continuous
 62
     7
370
    25
100
AcDbCircle
 10
3506.113890795622
 20
3758.808914285714
 30
0.0
 40
3.0
100
AcDbArc
 50
180.0
 51
270.0000000000008
  0
LINE
  5
3E7
330
1F
100
AcDbEntity
  8
0
  6
Continuous
 62
     7
370
    25
100
AcDbLine
 10
4103.113890795621
 20
3767.808914285713
 30
0.0
 11
4103.113890795621
 21
3758.808914285714
 31
0.0
  0
LINE
  5
3E8
330
1F
100
AcDbEntity
  8
0
  6
Continuous
 62
     7
370
    25
100
AcDbLine
 10
4073.113890795621
 20
3749.808914285714
 30
0.0
 11
4083.113890795622
 21
3749.808914285714
 31
0.0
  0
LINE
  5
3E9
330
1F
100
AcDbEntity
  8
0
  6
Continuous
 62
     7
370
    25
100
AcDbLine
 10
4070.213890795622
 20
3750.808914285714
 30
0.0
 11
4086.013890795622
 21
3750.808914285714
 31
0.0
  0
LINE
  5
3EA
330
1F
100
AcDbEntity
  8
0
  6
Continuous
 62
     7
370
    25
100
AcDbLine
 10
3523.113890795622
 20
3749.808914285701
 30
0.0
 11
3533.113890795622
 21
3749.808914285701
 31
0.0
  0
LINE
  5
3EB
330
1F
100
AcDbEntity
  8
0
  6
Continuous
 62
     7
370
    25
100
AcDbLine
 10
3520.213890795622
 20
3750.808914285701
 30
0.0
 11
3536.013890795622
 21
3750.808914285701
 31
0.0
  0
LINE
  5
3EC
330
1F
100
AcDbEntity
  8
0
  6
Continuous
 62
     7
370
    25
100
AcDbLine
 10
4005.613656604341
 20
3692.849941519701
 30
0.0
 11
4005.613656604341
 21
3724.317876368453
 31
0.0
  0
LINE
  5
3ED
330
1F
100
AcDbEntity
  8
0
  6
Continuous
 62
     7
370
    25
100
AcDbLine
 10
3996.613656604342
 20
3716.495742959351
 30
0.0
 11
3996.613656604342
 21
3692.849941519701
 31
0.0
  0
LINE
  5
3EE
330
1F
100
AcDbEntity
  8
0
  6
Continuous
 62
     7
370
    25
100
AcDbLine
 10
3996.613656604342
 20
3692.849941519701
 30
0.0
 11
3996.613656604342
 21
3683.538036834666
 31
0.0
  0
LINE
  5
3EF
330
1F
100
AcDbEntity
  8
0
  6
Continuous
 62
     7
370
    25
100
AcDbLine
 10
4005.613656604341
 20
3683.538036834666
 30
0.0
 11
4005.613656604341
 21
3692.849941519701
 31
0.0
  0
LINE
  5
3F0
330
1F
100
AcDbEntity
  8
0
  6
Continuous
 62
     7
370
    25
100
AcDbLine
 10
3610.613656604341
 20
3692.852328157357
 30
0.0
 11
3610.613656604341
 21
3716.495677918271
 31
0.0
  0
LINE
  5
3F1
330
1F
100
AcDbEntity
  8
0
  6
Continuous
 62
     7
370
    25
100
AcDbLine
 10
3601.613656604341
 20
3724.353728380206
 30
0.0
 11
3601.613656604341
 21
3692.852328157357
 31
0.0
  0
LINE
  5
3F2
330
1F
100
AcDbEntity
  8
0
  6
Continuous
 62
     7
370
    25
100
AcDbLine
 10
3610.613656604341
 20
3683.538036837592
 30
0.0
 11
3610.613656604341
 21
3692.852328157357
 31
0.0
  0
LINE
  5
3F3
330
1F
100
AcDbEntity
  8
0
  6
Continuous
 62
     7
370
    25
100
AcDbLine
 10
3601.613656604341
 20
3692.852328157357
 30
0.0
 11
3601.613656604341
 21
3683.538036837592
 31
0.0
  0
LINE
  5
3F4
330
1F
100
AcDbEntity
  8
0
  6
Continuous
 62
     7
370
    25
100
AcDbLine
 10
3552.774228429021
 20
3752.808914285714
 30
0.0
 11
3538.47424284507
 21
3752.808914285714
 31
0.0
  0
LINE
  5
3F5
330
1F
100
AcDbEntity
  8
0
  6
Continuous
 62
     7
370
    25
100
AcDbLine
 10
3538.474242845071
 20
3743.808914285714
 30
0.0
 11
3552.774228429021
 21
3743.808914285714
 31
0.0
  0
LINE
  5
3F6
330
1F
100
AcDbEntity
  8
0
  6
Continuous
 62
     7
370
    25
100
AcDbLine
 10
4054.45293248733
 20
3743.808914285714
 30
0.0
 11
4068.753070363611
 21
3743.808914285714
 31
0.0
  0
LINE
  5
3F7
330
1F
100
AcDbEntity
  8
0
  6
Continuous
 62
     7
370
    25
100
AcDbLine
 10
4068.753070363611
 20
3752.808914285714
 30
0.0
 11
4054.45293248733
 21
3752.808914285714
 31
0.0
  0
LINE
  5
3F8
330
1F
100
AcDbEntity
  8
0
  6
Continuous
 62
     7
370
    25
100
AcDbLine
 10
3613.613656604342
 20
3701.663224780272
 30
0.0
 11
3993.613656604341
 21
3701.663224780273
 31
0.0
  0
SPLINE
  5
3F9
330
1F
100
AcDbEntity
  8
0
  6
Continuous
 62
     7
370
    25
100
AcDbSpline
210
0.0
220
0.0
230
1.0
 70
    24
 71
     3
 72
     9
 73
     5
 74
     0
 42
0.00000001
 43
0.0000000001
 40
0.0
 40
0.0
 40
0.0
 40
0.0
 40
0.0102431961943531
 40
1.0
 40
1.0
 40
1.0
 40
1.0
 10
3573.613676834844
 20
3736.038914285714
 30
0.0
 10
3573.605229727238
 20
3736.038914285714
 30
0.0
 10
3572.780574273532
 20
3736.038914285714
 30
0.0
 10
3571.872759091681
 20
3736.038914285714
 30
0.0
 10
3570.974242838848
 20
3736.038914285714
 30
0.0
  0
LINE
  5
3FA
330
1F
100
AcDbEntity
  8
0
  6
Continuous
 62
     7
370
    25
100
AcDbLine
 10
4030.613676834843
 20
3711.308914285714
 30
0.0
 11
4030.613676834843
 21
3740.808914285714
 31
0.0
  0
ARC
  5
3FB
330
1F
100
AcDbEntity
  8
0
  6
Continuous
 62
     7
370
    25
100
AcDbCircle
 10
4005.613656604341
 20
3732.308914285714
 30
0.0
 40
7.000000000000454
100
AcDbArc
 50
0.0
 51
54.2549918639564
  0
ARC
  5
3FC
330
1F
100
AcDbEntity
  8
0
  6
Continuous
 62
     7
370
    25
100
AcDbCircle
 10
3601.613656604341
 20
3732.308914285713
 30
0.0
 40
7.000000000000454
100
AcDbArc
 50
125.7465498170739
 51
180.0
  0
LINE
  5
3FD
330
1F
100
AcDbEntity
  8
0
  6
Continuous
 62
     7
370
    25
100
AcDbLine
 10
3576.613676834843
 20
3740.808914285713
 30
0.0
 11
3576.613676834843
 21
3711.308914285713
 31
0.0
  0
LINE
  5
3FE
330
1F
100
AcDbEntity
  8
0
  6
Continuous
 62
     7
370
    25
100
AcDbLine
 10
4093.113890795621
 20
3770.806149575435
 30
0.0
 11
4093.113890795621
 21
3767.808914285713
 31
0.0
  0
ENDSEC
  0
SECTION
  2
OBJECTS
  0
DICTIONARY
  5
C
330
0
100
AcDbDictionary
281
     1
  3
ACAD_CIP_PREVIOUS_PRODUCT_INFO
350
40F
  3
ACAD_COLOR
350
409
  3
ACAD_DETAILVIEWSTYLE
350
404
  3
ACAD_GROUP
350
D
  3
ACAD_LAYOUT
350
1A
  3
ACAD_MATERIAL
350
43
  3
ACAD_MLEADERSTYLE
350
5B
  3
ACAD_MLINESTYLE
350
17
  3
ACAD_PLOTSETTINGS
350
19
  3
ACAD_PLOTSTYLENAME
350
E
  3
ACAD_RENDER_ACTIVE_RAPIDRT_SETTINGS
350
417
  3
ACAD_RENDER_RAPIDRT_SETTINGS
350
410
  3
ACAD_SCALELIST
350
47
  3
ACAD_SECTIONVIEWSTYLE
350
405
  3
ACAD_TABLESTYLE
350
59
  3
ACAD_VISUALSTYLE
350
2A
  3
ACDB_RECOMPOSE_DATA
350
428
  3
AcDbVariableDictionary
350
400
  0
SUN
  5
5D
330
29
100
AcDbSun
 90
        1
290
     0
 63
     7
421
 16777215
 40
1.0
291
     1
 91
  2455826
 92
 54000000
292
     0
 70
     0
 71
   256
280
     1
  0
DICTIONARY
  5
41B
330
2
100
AcDbDictionary
280
     1
281
     1
  3
ACAD_LAYERSTATES
360
41C
  0
XRECORD
  5
40F
102
{ACAD_REACTORS
330
C
102
}
330
C
100
AcDbXrecord
280
     1
300
ACD
300
2020
300

  0
DICTIONARY
  5
409
102
{ACAD_REACTORS
330
C
102
}
330
C
100
AcDbDictionary
281
     1
  0
DICTIONARY
  5
404
102
{ACAD_REACTORS
330
C
102
}
330
C
100
AcDbDictionary
281
     1
  3
Metric50
350
40B
  0
DICTIONARY
  5
D
102
{ACAD_REACTORS
330
C
102
}
330
C
100
AcDbDictionary
281
     1
  0
DICTIONARY
  5
1A
102
{ACAD_REACTORS
330
C
102
}
330
C
100
AcDbDictionary
281
     1
  3
Layout1
350
1E
  3
Layout2
350
26
  3
Model
350
22
  0
DICTIONARY
  5
43
102
{ACAD_REACTORS
330
C
102
}
330
C
100
AcDbDictionary
281
     1
  3
ByBlock
350
45
  3
ByLayer
350
44
  3
Global
350
46
  0
DICTIONARY
  5
5B
102
{ACAD_REACTORS
330
C
102
}
330
C
100
AcDbDictionary
281
     1
  3
Standard
350
5C
  0
DICTIONARY
  5
17
102
{ACAD_REACTORS
330
C
102
}
330
C
100
AcDbDictionary
281
     1
  3
Standard
350
18
  0
DICTIONARY
  5
19
102
{ACAD_REACTORS
330
C
102
}
330
C
100
AcDbDictionary
281
     1
  0
ACDBDICTIONARYWDFLT
  5
E
102
{ACAD_REACTORS
330
C
102
}
330
C
100
AcDbDictionary
281
     1
  3
Normal
350
F
100
AcDbDictionaryWithDefault
340
F
  0
RAPIDRTRENDERSETTINGS
  5
417
102
{ACAD_REACTORS
330
C
102
}
330
C
100
AcDbRenderSettings
 90
        2
  1
Medium
290
     1
290
     0
290
     1
290
     1
  1

  1
Applies 5 rendering levels
 90
        0
100
AcDbRapidRTRenderSettings
 90
        3
 70
     0
 90
        5
 90
        1
 70
     1
 70
     2
 40
3.0
 40
3.0
290
     1
  0
DICTIONARY
  5
410
102
{ACAD_REACTORS
330
C
102
}
330
C
100
AcDbDictionary
281
     1
  3
Coffee-Break Quality
350
414
  3
High
350
413
  3
Low
350
411
  3
Lunch Quality
350
415
  3
Medium
350
412
  3
Overnight Quality
350
416
  0
DICTIONARY
  5
47
102
{ACAD_REACTORS
330
C
102
}
330
C
100
AcDbDictionary
281
     1
  3
A0
350
48
  3
A1
350
49
  3
A2
350
4A
  3
A3
350
4B
  3
A4
350
4C
  3
A5
350
4D
  3
A6
350
4E
  3
A7
350
4F
  3
A8
350
50
  3
A9
350
51
  3
B0
350
52
  3
B1
350
53
  3
B2
350
54
  3
B3
350
55
  3
B4
350
56
  3
B5
350
57
  3
B6
350
58
  0
DICTIONARY
  5
405
102
{ACAD_REACTORS
330
C
102
}
330
C
100
AcDbDictionary
281
     1
  3
Metric50
350
40A
  0
DICTIONARY
  5
59
102
{ACAD_REACTORS
330
C
102
}
330
C
100
AcDbDictionary
281
     1
  3
Standard
350
5A
  0
DICTIONARY
  5
2A
102
{ACAD_REACTORS
330
C
102
}
330
C
100
AcDbDictionary
281
     1
  3
2dWireframe
350
2F
  3
Basic
350
32
  3
Brighten
350
36
  3
ColorChange
350
3A
  3
Conceptual
350
34
  3
Dim
350
35
  3
EdgeColorOff
350
3D
  3
Facepattern
350
39
  3
Flat
350
2B
  3
FlatWithEdges
350
2C
  3
Gouraud
350
2D
  3
GouraudWithEdges
350
2E
  3
Hidden
350
31
  3
JitterOff
350
3B
  3
Linepattern
350
38
  3
OverhangOff
350
3C
  3
Realistic
350
33
  3
Shaded
350
42
  3
Shaded with edges
350
41
  3
Shades of Gray
350
3E
  3
Sketchy
350
3F
  3
Thicken
350
37
  3
Wireframe
350
30
  3
X-Ray
350
40
  0
XRECORD
  5
428
102
{ACAD_REACTORS
330
C
102
}
330
C
100
AcDbXrecord
280
     1
 90
        1
330
5A
  0
DICTIONARY
  5
400
102
{ACAD_REACTORS
330
C
102
}
330
C
100
AcDbDictionary
281
     1
  3
CANNOSCALE
350
401
  3
CENTEREXE
350
406
  3
CENTERLTYPEFILE
350
407
  3
CMLEADERSTYLE
350
403
  3
CTABLESTYLE
350
402
  3
CVIEWDETAILSTYLE
350
424
  3
CVIEWSECTIONSTYLE
350
425
  0
DICTIONARY
  5
41C
102
{ACAD_REACTORS
330
41B
102
}
330
41B
100
AcDbDictionary
281
     1
  0
ACDBDETAILVIEWSTYLE
  5
40B
102
{ACAD_REACTORS
330
404
102
}
330
404
100
AcDbModelDocViewStyle
 70
     0
  3
Metric50
290
     1
300
Metric50
 90
        0
100
AcDbDetailViewStyle
 70
     0
 71
     0
 90
        3
 71
     1
340
11
 62
   256
 40
5.0
340
0
 62
   256
 40
5.0
300

 40
0.0
280
     1
 71
     2
340
16
 90
       25
 62
   256
 71
     3
340
11
 62
   256
 40
5.0
 90
        0
 40
15.0
 90
        1
300
%<\AcVar ViewDetailId>% (%<\AcVar ViewScale \f "%sn">%)
 71
     4
340
16
 90
       25
 62
   256
340
16
 90
       25
 62
   256
280
     0
  0
LAYOUT
  5
1E
102
{ACAD_REACTORS
330
1A
102
}
330
1A
100
AcDbPlotSettings
  1

  2
none_device
  4

  6

 40
0.0
 41
0.0
 42
0.0
 43
0.0
 44
0.0
 45
0.0
 46
0.0
 47
0.0
 48
0.0
 49
0.0
140
0.0
141
0.0
142
1.0
143
1.0
 70
   688
 72
     1
 73
     0
 74
     5
  7

 75
    16
147
1.0
 76
     0
 77
     2
 78
   300
148
0.0
149
0.0
100
AcDbLayout
  1
Layout1
 70
     1
 71
     1
 10
0.0
 20
0.0
 11
420.0
 21
297.0
 12
0.0
 22
0.0
 32
0.0
 14
1.000000000000000E+20
 24
1.000000000000000E+20
 34
1.000000000000000E+20
 15
-1.000000000000000E+20
 25
-1.000000000000000E+20
 35
-1.000000000000000E+20
146
0.0
 13
0.0
 23
0.0
 33
0.0
 16
1.0
 26
0.0
 36
0.0
 17
0.0
 27
1.0
 37
0.0
 76
     0
330
1B
  0
LAYOUT
  5
26
102
{ACAD_REACTORS
330
1A
102
}
330
1A
100
AcDbPlotSettings
  1

  2
none_device
  4

  6

 40
0.0
 41
0.0
 42
0.0
 43
0.0
 44
0.0
 45
0.0
 46
0.0
 47
0.0
 48
0.0
 49
0.0
140
0.0
141
0.0
142
1.0
143
1.0
 70
   688
 72
     1
 73
     0
 74
     5
  7

 75
    16
147
1.0
 76
     0
 77
     2
 78
   300
148
0.0
149
0.0
100
AcDbLayout
  1
Layout2
 70
     1
 71
     2
 10
0.0
 20
0.0
 11
0.0
 21
0.0
 12
0.0
 22
0.0
 32
0.0
 14
0.0
 24
0.0
 34
0.0
 15
0.0
 25
0.0
 35
0.0
146
0.0
 13
0.0
 23
0.0
 33
0.0
 16
1.0
 26
0.0
 36
0.0
 17
0.0
 27
1.0
 37
0.0
 76
     0
330
23
  0
LAYOUT
  5
22
102
{ACAD_REACTORS
330
1A
102
}
330
1A
100
AcDbPlotSettings
  1

  2
none_device
  4
Letter_(8.50_x_11.00_Inches)
  6

 40
6.349999999999999
 41
6.349999999999999
 42
6.350005079999999
 43
6.350005079999999
 44
215.9
 45
279.4
 46
0.0
 47
0.0
 48
0.0
 49
0.0
140
0.0
141
0.0
142
1.0
143
1.0
 70
  1712
 72
     1
 73
     0
 74
     0
  7

 75
     0
147
1.0
 76
     0
 77
     2
 78
   300
148
0.0
149
0.0
100
AcDbLayout
  1
Model
 70
     1
 71
     0
 10
0.0
 20
0.0
 11
8400.0
 21
5940.0
 12
0.0
 22
0.0
 32
0.0
 14
0.0
 24
0.0
 34
0.0
 15
8400.0
 25
5940.0
 35
0.0
146
0.0
 13
0.0
 23
0.0
 33
0.0
 16
1.0
 26
0.0
 36
0.0
 17
0.0
 27
1.0
 37
0.0
 76
     0
330
1F
331
29
  0
MATERIAL
  5
45
102
{ACAD_REACTORS
330
43
102
}
330
43
100
AcDbMaterial
  1
ByBlock
 73
     1
 78
     1
172
     1
176
     1
270
     1
274
     1
  0
MATERIAL
  5
44
102
{ACAD_REACTORS
330
43
102
}
330
43
100
AcDbMaterial
  1
ByLayer
 73
     1
 78
     1
172
     1
176
     1
270
     1
274
     1
  0
MATERIAL
  5
46
102
{ACAD_REACTORS
330
43
102
}
330
43
100
AcDbMaterial
  1
Global
 73
     1
 78
     1
172
     1
176
     1
270
     1
274
     1
  0
MLEADERSTYLE
  5
5C
102
{ACAD_REACTORS
330
5B
102
}
330
5B
100
AcDbMLeaderStyle
179
     2
170
     2
171
     1
172
     0
 90
        2
 40
0.0
 41
0.0
173
     1
 91
-1056964608
340
14
 92
       -2
290
     1
 42
2.0
291
     1
 43
8.0
  3
Standard
 44
4.0
300

342
11
174
     1
178
     6
175
     1
176
     0
 93
-1056964608
 45
4.0
292
     0
297
     0
 46
4.0
 94
-1056964608
 47
1.0
 49
1.0
140
1.0
293
     1
141
0.0
294
     1
177
     0
142
1.0
295
     0
296
     0
143
3.75
271
     0
272
     9
273
     9
298
     0
  0
MLINESTYLE
  5
18
102
{ACAD_REACTORS
330
17
102
}
330
17
100
AcDbMlineStyle
  2
STANDARD
 70
     0
  3

 62
   256
 51
90.0
 52
90.0
 71
     2
 49
0.5
 62
   256
  6
BYLAYER
 49
-0.5
 62
   256
  6
BYLAYER
  0
ACDBPLACEHOLDER
  5
F
102
{ACAD_REACTORS
330
E
102
}
330
E
  0
RAPIDRTRENDERSETTINGS
  5
414
102
{ACAD_REACTORS
330
410
102
}
330
410
100
AcDbRenderSettings
 90
        2
  1
Coffee-Break Quality
290
     1
290
     0
290
     1
290
     1
  1

  1
Renders for 10 minutes
 90
        3
100
AcDbRapidRTRenderSettings
 90
        3
 70
     1
 90
        1
 90
       10
 70
     1
 70
     2
 40
3.0
 40
3.0
290
     1
  0
RAPIDRTRENDERSETTINGS
  5
413
102
{ACAD_REACTORS
330
410
102
}
330
410
100
AcDbRenderSettings
 90
        2
  1
High
290
     1
290
     0
290
     1
290
     1
  1

  1
Applies 10 rendering levels
 90
        2
100
AcDbRapidRTRenderSettings
 90
        3
 70
     0
 90
       10
 90
        1
 70
     2
 70
     2
 40
3.0
 40
3.0
290
     1
  0
RAPIDRTRENDERSETTINGS
  5
411
102
{ACAD_REACTORS
330
410
102
}
330
410
100
AcDbRenderSettings
 90
        2
  1
Low
290
     1
290
     0
290
     1
290
     1
  1

  1
Applies 1 rendering level
 90
        0
100
AcDbRapidRTRenderSettings
 90
        3
 70
     0
 90
        1
 90
        1
 70
     0
 70
     2
 40
3.0
 40
3.0
290
     1
  0
RAPIDRTRENDERSETTINGS
  5
415
102
{ACAD_REACTORS
330
410
102
}
330
410
100
AcDbRenderSettings
 90
        2
  1
Lunch Quality
290
     1
290
     0
290
     1
290
     1
  1

  1
Renders for 60 minutes
 90
        4
100
AcDbRapidRTRenderSettings
 90
        3
 70
     1
 90
        1
 90
       60
 70
     2
 70
     2
 40
3.0
 40
3.0
290
     1
  0
RAPIDRTRENDERSETTINGS
  5
412
102
{ACAD_REACTORS
330
410
102
}
330
410
100
AcDbRenderSettings
 90
        2
  1
Medium
290
     1
290
     0
290
     1
290
     1
  1

  1
Applies 5 rendering levels
 90
        1
100
AcDbRapidRTRenderSettings
 90
        3
 70
     0
 90
        5
 90
        1
 70
     1
 70
     2
 40
3.0
 40
3.0
290
     1
  0
RAPIDRTRENDERSETTINGS
  5
416
102
{ACAD_REACTORS
330
410
102
}
330
410
100
AcDbRenderSettings
 90
        2
  1
Overnight Quality
290
     1
290
     0
290
     1
290
     1
  1

  1
Renders for 12 hours
 90
        5
100
AcDbRapidRTRenderSettings
 90
        3
 70
     1
 90
        1
 90
      720
 70
     2
 70
     2
 40
3.0
 40
3.0
290
     1
  0
SCALE
  5
48
102
{ACAD_REACTORS
330
47
102
}
330
47
100
AcDbScale
 70
     0
300
1:1
140
1.0
141
1.0
290
     1
  0
SCALE
  5
49
102
{ACAD_REACTORS
330
47
102
}
330
47
100
AcDbScale
 70
     0
300
1:2
140
1.0
141
2.0
290
     0
  0
SCALE
  5
4A
102
{ACAD_REACTORS
330
47
102
}
330
47
100
AcDbScale
 70
     0
300
1:4
140
1.0
141
4.0
290
     0
  0
SCALE
  5
4B
102
{ACAD_REACTORS
330
47
102
}
330
47
100
AcDbScale
 70
     0
300
1:5
140
1.0
141
5.0
290
     0
  0
SCALE
  5
4C
102
{ACAD_REACTORS
330
47
102
}
330
47
100
AcDbScale
 70
     0
300
1:8
140
1.0
141
8.0
290
     0
  0
SCALE
  5
4D
102
{ACAD_REACTORS
330
47
102
}
330
47
100
AcDbScale
 70
     0
300
1:10
140
1.0
141
10.0
290
     0
  0
SCALE
  5
4E
102
{ACAD_REACTORS
330
47
102
}
330
47
100
AcDbScale
 70
     0
300
1:16
140
1.0
141
16.0
290
     0
  0
SCALE
  5
4F
102
{ACAD_REACTORS
330
47
102
}
330
47
100
AcDbScale
 70
     0
300
1:20
140
1.0
141
20.0
290
     0
  0
SCALE
  5
50
102
{ACAD_REACTORS
330
47
102
}
330
47
100
AcDbScale
 70
     0
300
1:30
140
1.0
141
30.0
290
     0
  0
SCALE
  5
51
102
{ACAD_REACTORS
330
47
102
}
330
47
100
AcDbScale
 70
     0
300
1:40
140
1.0
141
40.0
290
     0
  0
SCALE
  5
52
102
{ACAD_REACTORS
330
47
102
}
330
47
100
AcDbScale
 70
     0
300
1:50
140
1.0
141
50.0
290
     0
  0
SCALE
  5
53
102
{ACAD_REACTORS
330
47
102
}
330
47
100
AcDbScale
 70
     0
300
1:100
140
1.0
141
100.0
290
     0
  0
SCALE
  5
54
102
{ACAD_REACTORS
330
47
102
}
330
47
100
AcDbScale
 70
     0
300
2:1
140
2.0
141
1.0
290
     0
  0
SCALE
  5
55
102
{ACAD_REACTORS
330
47
102
}
330
47
100
AcDbScale
 70
     0
300
4:1
140
4.0
141
1.0
290
     0
  0
SCALE
  5
56
102
{ACAD_REACTORS
330
47
102
}
330
47
100
AcDbScale
 70
     0
300
8:1
140
8.0
141
1.0
290
     0
  0
SCALE
  5
57
102
{ACAD_REACTORS
330
47
102
}
330
47
100
AcDbScale
 70
     0
300
10:1
140
10.0
141
1.0
290
     0
  0
SCALE
  5
58
102
{ACAD_REACTORS
330
47
102
}
330
47
100
AcDbScale
 70
     0
300
100:1
140
100.0
141
1.0
290
     0
  0
ACDBSECTIONVIEWSTYLE
  5
40A
102
{ACAD_REACTORS
330
405
102
}
330
405
100
AcDbModelDocViewStyle
 70
     0
  3
Metric50
290
     1
300
Metric50
 90
        0
100
AcDbSectionViewStyle
 70
     0
 71
     0
 90
      102
 71
     1
340
11
 62
   256
 40
5.0
340
0
340
0
 62
   256
 40
5.0
300
I, O, Q, S, X, Z
 40
10.0
 90
        0
 40
2.5
 90
        0
 71
     2
340
16
 90
       25
 62
   256
340
16
 90
       50
 62
   256
 40
5.0
 40
2.5
 40
5.0
 71
     3
340
11
 62
   256
 40
5.0
 90
        0
 40
15.0
 90
        1
300
%<\AcVar ViewSectionStartId>%-%<\AcVar ViewSectionEndId>% (%<\AcVar ViewScale \f "%sn">%)
 71
     4
 62
   256
 62
   257
300
ANSI31
 40
1.0
 90
        0
290
     0
290
     0
 90
        6
 40
0.0
 40
1.570796326794896
 40
0.2617993877991494
 40
1.308996938995747
 40
-0.2617993877991494
 40
1.832595714594046
  0
TABLESTYLE
  5
5A
102
{ACAD_XDICTIONARY
360
426
102
}
102
{ACAD_REACTORS
330
59
102
}
330
59
100
AcDbTableStyle
280
     0
  3
Standard
 70
     0
 71
     0
 40
1.5
 41
1.5
280
     0
281
     0
  7
Standard
140
4.5
170
     2
 62
     0
 63
     7
283
     0
 90
        4
 91
        0
  1

274
    -2
284
     1
 64
     0
275
    -2
285
     1
 65
     0
276
    -2
286
     1
 66
     0
277
    -2
287
     1
 67
     0
278
    -2
288
     1
 68
     0
279
    -2
289
     1
 69
     0
  7
Standard
140
6.0
170
     5
 62
     0
 63
     7
283
     0
 90
        4
 91
        0
  1

274
    -2
284
     1
 64
     0
275
    -2
285
     1
 65
     0
276
    -2
286
     1
 66
     0
277
    -2
287
     1
 67
     0
278
    -2
288
     1
 68
     0
279
    -2
289
     1
 69
     0
  7
Standard
140
4.5
170
     5
 62
     0
 63
     7
283
     0
 90
        4
 91
        0
  1

274
    -2
284
     1
 64
     0
275
    -2
285
     1
 65
     0
276
    -2
286
     1
 66
     0
277
    -2
287
     1
 67
     0
278
    -2
288
     1
 68
     0
279
    -2
289
     1
 69
     0
  0
VISUALSTYLE
  5
2F
102
{ACAD_REACTORS
330
2A
102
}
330
2A
100
AcDbVisualStyle
  2
2dWireframe
 70
     4
177
     3
291
     0
 70
    58
 90
        0
176
     1
 90
        2
176
     1
 90
        0
176
     1
 90
        0
176
     1
 40
0.6
176
     1
 40
30.0
176
     1
 62
     7
420
 16777215
176
     1
 90
        1
176
     1
 90
        4
176
     1
 62
     7
176
     1
 62
   257
176
     1
 90
        1
176
     1
 90
        1
176
     1
 40
1.0
176
     1
 90
        0
176
     1
 62
   257
176
     1
 40
1.0
176
     1
 90
        1
176
     1
 90
        6
176
     1
 90
        2
176
     1
 62
     7
176
     1
 90
        5
176
     1
 90
        0
176
     1
 90
        0
176
     1
290
     0
176
     1
 90
        1
176
     1
 40
0.0
176
     1
 90
        0
176
     1
290
     1
176
     1
290
     1
176
     1
290
     0
176
     1
290
     0
176
     1
290
     0
176
     1
290
     0
176
     1
290
     0
176
     1
290
     0
176
     1
290
     0
176
     1
 90
       50
176
     1
 40
0.0
176
     1
 40
1.0
176
     1
 90
        0
176
     1
 62
    18
420
        0
176
     1
 90
       50
176
     1
 90
        3
176
     1
 62
     5
420
      255
176
     1
290
     0
176
     1
 90
       50
176
     1
 90
       50
176
     1
 90
       50
176
     1
290
     0
176
     1
 90
       50
176
     1
 62
   256
176
     0
 40
1.0
176
     0
 90
        2
176
     1
  1
strokes_ogs.tif
176
     1
290
     0
176
     1
 40
1.0
176
     1
 40
1.0
176
     1
  0
VISUALSTYLE
  5
32
102
{ACAD_REACTORS
330
2A
102
}
330
2A
100
AcDbVisualStyle
  2
Basic
 70
     7
177
     3
291
     1
 70
    58
 90
        1
176
     1
 90
        0
176
     1
 90
        1
176
     1
 90
        0
176
     1
 40
0.6
176
     1
 40
30.0
176
     1
 62
     7
420
 16777215
176
     1
 90
        0
176
     1
 90
        4
176
     1
 62
     7
176
     1
 62
   257
176
     1
 90
        1
176
     1
 90
        1
176
     1
 40
1.0
176
     1
 90
        8
176
     1
 62
     7
176
     1
 40
1.0
176
     1
 90
        1
176
     1
 90
        6
176
     1
 90
        2
176
     1
 62
     7
176
     1
 90
        5
176
     1
 90
        0
176
     1
 90
        0
176
     1
290
     0
176
     1
 90
        1
176
     1
 40
0.0
176
     1
 90
        0
176
     1
290
     0
176
     1
290
     1
176
     1
290
     1
176
     1
290
     0
176
     1
290
     0
176
     1
290
     0
176
     1
290
     0
176
     1
290
     0
176
     1
290
     0
176
     1
 90
       50
176
     1
 40
0.0
176
     1
 40
1.0
176
     1
 90
        0
176
     1
 62
    18
420
        0
176
     1
 90
       50
176
     1
 90
        3
176
     1
 62
     5
420
      255
176
     1
290
     0
176
     1
 90
       50
176
     1
 90
       50
176
     1
 90
       50
176
     1
290
     0
176
     1
 90
       50
176
     1
 62
   256
176
     0
 40
1.0
176
     0
 90
        2
176
     1
  1
strokes_ogs.tif
176
     1
290
     0
176
     1
 40
1.0
176
     1
 40
1.0
176
     1
  0
VISUALSTYLE
  5
36
102
{ACAD_REACTORS
330
2A
102
}
330
2A
100
AcDbVisualStyle
  2
Brighten
 70
    12
177
     3
291
     1
 70
    58
 90
        2
176
     1
 90
        2
176
     1
 90
        0
176
     1
 90
        0
176
     1
 40
0.6
176
     1
 40
30.0
176
     1
 62
     7
420
 16777215
176
     1
 90
        1
176
     1
 90
        4
176
     1
 62
     7
176
     1
 62
   257
176
     1
 90
        1
176
     1
 90
        1
176
     1
 40
1.0
176
     1
 90
        8
176
     1
 62
     7
176
     1
 40
1.0
176
     1
 90
        1
176
     1
 90
        6
176
     1
 90
        2
176
     1
 62
     7
176
     1
 90
        5
176
     1
 90
        0
176
     1
 90
        0
176
     1
290
     0
176
     1
 90
        1
176
     1
 40
50.0
176
     1
 90
        0
176
     1
290
     0
176
     1
290
     1
176
     1
290
     1
176
     1
290
     0
176
     1
290
     0
176
     1
290
     0
176
     1
290
     0
176
     1
290
     0
176
     1
290
     0
176
     1
 90
       50
176
     1
 40
0.0
176
     1
 40
1.0
176
     1
 90
        0
176
     1
 62
    18
420
        0
176
     1
 90
       50
176
     1
 90
        3
176
     1
 62
     5
420
      255
176
     1
290
     0
176
     1
 90
       50
176
     1
 90
       50
176
     1
 90
       50
176
     1
290
     0
176
     1
 90
       50
176
     1
 62
   256
176
     0
 40
1.0
176
     0
 90
        2
176
     1
  1
strokes_ogs.tif
176
     1
290
     0
176
     1
 40
1.0
176
     1
 40
1.0
176
     1
  0
VISUALSTYLE
  5
3A
102
{ACAD_REACTORS
330
2A
102
}
330
2A
100
AcDbVisualStyle
  2
ColorChange
 70
    16
177
     3
291
     1
 70
    58
 90
        2
176
     1
 90
        2
176
     1
 90
        3
176
     1
 90
        0
176
     1
 40
0.6
176
     1
 40
30.0
176
     1
 62
     8
420
  8421504
176
     1
 90
        1
176
     1
 90
        4
176
     1
 62
     7
176
     1
 62
   257
176
     1
 90
        1
176
     1
 90
        1
176
     1
 40
1.0
176
     1
 90
        8
176
     1
 62
     8
420
  8421504
176
     1
 40
1.0
176
     1
 90
        1
176
     1
 90
        6
176
     1
 90
        2
176
     1
 62
     7
176
     1
 90
        5
176
     1
 90
        0
176
     1
 90
        0
176
     1
290
     0
176
     1
 90
        1
176
     1
 40
0.0
176
     1
 90
        0
176
     1
290
     0
176
     1
290
     1
176
     1
290
     1
176
     1
290
     0
176
     1
290
     0
176
     1
290
     0
176
     1
290
     0
176
     1
290
     0
176
     1
290
     0
176
     1
 90
       50
176
     1
 40
0.0
176
     1
 40
1.0
176
     1
 90
        0
176
     1
 62
    18
420
        0
176
     1
 90
       50
176
     1
 90
        3
176
     1
 62
     5
420
      255
176
     1
290
     0
176
     1
 90
       50
176
     1
 90
       50
176
     1
 90
       50
176
     1
290
     0
176
     1
 90
       50
176
     1
 62
   256
176
     0
 40
1.0
176
     0
 90
        2
176
     1
  1
strokes_ogs.tif
176
     1
290
     0
176
     1
 40
1.0
176
     1
 40
1.0
176
     1
  0
VISUALSTYLE
  5
34
102
{ACAD_REACTORS
330
2A
102
}
330
2A
100
AcDbVisualStyle
  2
Conceptual
 70
     9
177
     3
291
     0
 70
    58
 90
        3
176
     1
 90
        2
176
     1
 90
        0
176
     1
 90
        0
176
     1
 40
0.6
176
     1
 40
30.0
176
     1
 62
     7
420
 16777215
176
     1
 90
        2
176
     1
 90
        2
176
     1
 62
     7
176
     1
 62
   257
176
     1
 90
        1
176
     1
 90
        1
176
     1
 40
179.0
176
     1
 90
        8
176
     1
 62
     7
176
     1
 40
1.0
176
     1
 90
        1
176
     1
 90
        6
176
     1
 90
        2
176
     1
 62
     7
176
     1
 90
        3
176
     1
 90
        0
176
     1
 90
        0
176
     1
290
     0
176
     1
 90
        1
176
     1
 40
0.0
176
     1
 90
        0
176
     1
290
     0
176
     1
290
     1
176
     1
290
     1
176
     1
290
     0
176
     1
290
     0
176
     1
290
     0
176
     1
290
     0
176
     1
290
     0
176
     1
290
     0
176
     1
 90
       50
176
     1
 40
0.0
176
     1
 40
1.0
176
     1
 90
        0
176
     1
 62
    18
420
        0
176
     1
 90
       50
176
     1
 90
        3
176
     1
 62
     5
420
      255
176
     1
290
     0
176
     1
 90
       50
176
     1
 90
       50
176
     1
 90
       50
176
     1
290
     0
176
     1
 90
       50
176
     1
 62
   256
176
     0
 40
1.0
176
     0
 90
        2
176
     1
  1
strokes_ogs.tif
176
     1
290
     0
176
     1
 40
1.0
176
     1
 40
1.0
176
     1
  0
VISUALSTYLE
  5
35
102
{ACAD_REACTORS
330
2A
102
}
330
2A
100
AcDbVisualStyle
  2
Dim
 70
    11
177
     3
291
     1
 70
    58
 90
        2
176
     1
 90
        2
176
     1
 90
        0
176
     1
 90
        0
176
     1
 40
0.6
176
     1
 40
30.0
176
     1
 62
     7
420
 16777215
176
     1
 90
        1
176
     1
 90
        4
176
     1
 62
     7
176
     1
 62
   257
176
     1
 90
        1
176
     1
 90
        1
176
     1
 40
1.0
176
     1
 90
        8
176
     1
 62
     7
176
     1
 40
1.0
176
     1
 90
        1
176
     1
 90
        6
176
     1
 90
        2
176
     1
 62
     7
176
     1
 90
        5
176
     1
 90
        0
176
     1
 90
        0
176
     1
290
     0
176
     1
 90
        1
176
     1
 40
-50.0
176
     1
 90
        0
176
     1
290
     0
176
     1
290
     1
176
     1
290
     1
176
     1
290
     0
176
     1
290
     0
176
     1
290
     0
176
     1
290
     0
176
     1
290
     0
176
     1
290
     0
176
     1
 90
       50
176
     1
 40
0.0
176
     1
 40
1.0
176
     1
 90
        0
176
     1
 62
    18
420
        0
176
     1
 90
       50
176
     1
 90
        3
176
     1
 62
     5
420
      255
176
     1
290
     0
176
     1
 90
       50
176
     1
 90
       50
176
     1
 90
       50
176
     1
290
     0
176
     1
 90
       50
176
     1
 62
   256
176
     0
 40
1.0
176
     0
 90
        2
176
     1
  1
strokes_ogs.tif
176
     1
290
     0
176
     1
 40
1.0
176
     1
 40
1.0
176
     1
  0
VISUALSTYLE
  5
3D
102
{ACAD_REACTORS
330
2A
102
}
330
2A
100
AcDbVisualStyle
  2
EdgeColorOff
 70
    22
177
     3
291
     1
 70
    58
 90
        2
176
     0
 90
        2
176
     0
 90
        0
176
     0
 90
        0
176
     0
 40
0.6
176
     0
 40
30.0
176
     0
 62
     7
420
 16777215
176
     0
 90
        1
176
     0
 90
        4
176
     0
 62
     7
176
     0
 62
   257
176
     0
 90
        1
176
     0
 90
        1
176
     0
 40
1.0
176
     0
 90
        8
176
     2
 62
     7
176
     0
 40
1.0
176
     0
 90
        1
176
     0
 90
        6
176
     0
 90
        2
176
     0
 62
     7
176
     0
 90
        5
176
     0
 90
        0
176
     0
 90
        0
176
     0
290
     0
176
     0
 90
        1
176
     0
 40
0.0
176
     0
 90
        0
176
     0
290
     0
176
     0
290
     1
176
     0
290
     1
176
     0
290
     0
176
     0
290
     0
176
     0
290
     0
176
     0
290
     0
176
     0
290
     0
176
     0
290
     0
176
     0
 90
       50
176
     0
 40
0.0
176
     0
 40
1.0
176
     0
 90
        0
176
     0
 62
    18
420
        0
176
     0
 90
       50
176
     0
 90
        3
176
     0
 62
     5
420
      255
176
     0
290
     0
176
     0
 90
       50
176
     0
 90
       50
176
     0
 90
       50
176
     0
290
     0
176
     0
 90
       50
176
     0
 62
   256
176
     0
 40
1.0
176
     0
 90
        2
176
     0
  1
strokes_ogs.tif
176
     0
290
     0
176
     0
 40
1.0
176
     0
 40
1.0
176
     0
  0
VISUALSTYLE
  5
39
102
{ACAD_REACTORS
330
2A
102
}
330
2A
100
AcDbVisualStyle
  2
Facepattern
 70
    15
177
     3
291
     1
 70
    58
 90
        2
176
     1
 90
        2
176
     1
 90
        0
176
     1
 90
        0
176
     1
 40
0.6
176
     1
 40
30.0
176
     1
 62
     7
420
 16777215
176
     1
 90
        1
176
     1
 90
        4
176
     1
 62
     7
176
     1
 62
   257
176
     1
 90
        1
176
     1
 90
        1
176
     1
 40
1.0
176
     1
 90
        8
176
     1
 62
     7
176
     1
 40
1.0
176
     1
 90
        1
176
     1
 90
        6
176
     1
 90
        2
176
     1
 62
     7
176
     1
 90
        5
176
     1
 90
        0
176
     1
 90
        0
176
     1
290
     0
176
     1
 90
        1
176
     1
 40
0.0
176
     1
 90
        0
176
     1
290
     0
176
     1
290
     1
176
     1
290
     1
176
     1
290
     0
176
     1
290
     0
176
     1
290
     0
176
     1
290
     0
176
     1
290
     0
176
     1
290
     0
176
     1
 90
       50
176
     1
 40
0.0
176
     1
 40
1.0
176
     1
 90
        0
176
     1
 62
    18
420
        0
176
     1
 90
       50
176
     1
 90
        3
176
     1
 62
     5
420
      255
176
     1
290
     0
176
     1
 90
       50
176
     1
 90
       50
176
     1
 90
       50
176
     1
290
     0
176
     1
 90
       50
176
     1
 62
   256
176
     0
 40
1.0
176
     0
 90
        2
176
     1
  1
strokes_ogs.tif
176
     1
290
     0
176
     1
 40
1.0
176
     1
 40
1.0
176
     1
  0
VISUALSTYLE
  5
2B
102
{ACAD_REACTORS
330
2A
102
}
330
2A
100
AcDbVisualStyle
  2
Flat
 70
     0
177
     3
291
     1
 70
    58
 90
        2
176
     1
 90
        1
176
     1
 90
        1
176
     1
 90
        2
176
     1
 40
0.6
176
     1
 40
30.0
176
     1
 62
     7
420
 16777215
176
     1
 90
        0
176
     1
 90
        0
176
     1
 62
     7
176
     1
 62
   257
176
     1
 90
        1
176
     1
 90
        1
176
     1
 40
1.0
176
     1
 90
        8
176
     1
 62
     7
176
     1
 40
1.0
176
     1
 90
        1
176
     1
 90
        6
176
     1
 90
        2
176
     1
 62
     7
176
     1
 90
        5
176
     1
 90
        0
176
     1
 90
        0
176
     1
290
     0
176
     1
 90
       13
176
     1
 40
0.0
176
     1
 90
        0
176
     1
290
     0
176
     1
290
     1
176
     1
290
     1
176
     1
290
     0
176
     1
290
     0
176
     1
290
     0
176
     1
290
     0
176
     1
290
     0
176
     1
290
     0
176
     1
 90
       50
176
     1
 40
0.0
176
     1
 40
1.0
176
     1
 90
        0
176
     1
 62
    18
420
        0
176
     1
 90
       50
176
     1
 90
        3
176
     1
 62
     5
420
      255
176
     1
290
     0
176
     1
 90
       50
176
     1
 90
       50
176
     1
 90
       50
176
     1
290
     0
176
     1
 90
       50
176
     1
 62
   256
176
     0
 40
1.0
176
     0
 90
        2
176
     1
  1
strokes_ogs.tif
176
     1
290
     0
176
     1
 40
1.0
176
     1
 40
1.0
176
     1
  0
VISUALSTYLE
  5
2C
102
{ACAD_REACTORS
330
2A
102
}
330
2A
100
AcDbVisualStyle
  2
FlatWithEdges
 70
     1
177
     3
291
     1
 70
    58
 90
        2
176
     1
 90
        1
176
     1
 90
        1
176
     1
 90
        2
176
     1
 40
0.6
176
     1
 40
30.0
176
     1
 62
     7
420
 16777215
176
     1
 90
        1
176
     1
 90
        0
176
     1
 62
     7
176
     1
 62
   257
176
     1
 90
        1
176
     1
 90
        1
176
     1
 40
1.0
176
     1
 90
        0
176
     1
 62
   257
176
     1
 40
1.0
176
     1
 90
        1
176
     1
 90
        6
176
     1
 90
        2
176
     1
 62
     7
176
     1
 90
        5
176
     1
 90
        0
176
     1
 90
        0
176
     1
290
     0
176
     1
 90
       13
176
     1
 40
0.0
176
     1
 90
        0
176
     1
290
     0
176
     1
290
     1
176
     1
290
     1
176
     1
290
     0
176
     1
290
     0
176
     1
290
     0
176
     1
290
     0
176
     1
290
     0
176
     1
290
     0
176
     1
 90
       50
176
     1
 40
0.0
176
     1
 40
1.0
176
     1
 90
        0
176
     1
 62
    18
420
        0
176
     1
 90
       50
176
     1
 90
        3
176
     1
 62
     5
420
      255
176
     1
290
     0
176
     1
 90
       50
176
     1
 90
       50
176
     1
 90
       50
176
     1
290
     0
176
     1
 90
       50
176
     1
 62
   256
176
     0
 40
1.0
176
     0
 90
        2
176
     1
  1
strokes_ogs.tif
176
     1
290
     0
176
     1
 40
1.0
176
     1
 40
1.0
176
     1
  0
VISUALSTYLE
  5
2D
102
{ACAD_REACTORS
330
2A
102
}
330
2A
100
AcDbVisualStyle
  2
Gouraud
 70
     2
177
     3
291
     1
 70
    58
 90
        2
176
     1
 90
        2
176
     1
 90
        1
176
     1
 90
        2
176
     1
 40
0.6
176
     1
 40
30.0
176
     1
 62
     7
420
 16777215
176
     1
 90
        0
176
     1
 90
        0
176
     1
 62
     7
176
     1
 62
   257
176
     1
 90
        1
176
     1
 90
        1
176
     1
 40
1.0
176
     1
 90
        0
176
     1
 62
     7
176
     1
 40
1.0
176
     1
 90
        1
176
     1
 90
        6
176
     1
 90
        2
176
     1
 62
     7
176
     1
 90
        5
176
     1
 90
        0
176
     1
 90
        0
176
     1
290
     0
176
     1
 90
       13
176
     1
 40
0.0
176
     1
 90
        0
176
     1
290
     0
176
     1
290
     1
176
     1
290
     1
176
     1
290
     0
176
     1
290
     0
176
     1
290
     0
176
     1
290
     0
176
     1
290
     0
176
     1
290
     0
176
     1
 90
       50
176
     1
 40
0.0
176
     1
 40
1.0
176
     1
 90
        0
176
     1
 62
    18
420
        0
176
     1
 90
       50
176
     1
 90
        3
176
     1
 62
     5
420
      255
176
     1
290
     0
176
     1
 90
       50
176
     1
 90
       50
176
     1
 90
       50
176
     1
290
     0
176
     1
 90
       50
176
     1
 62
   256
176
     0
 40
1.0
176
     0
 90
        2
176
     1
  1
strokes_ogs.tif
176
     1
290
     0
176
     1
 40
1.0
176
     1
 40
1.0
176
     1
  0
VISUALSTYLE
  5
2E
102
{ACAD_REACTORS
330
2A
102
}
330
2A
100
AcDbVisualStyle
  2
GouraudWithEdges
 70
     3
177
     3
291
     1
 70
    58
 90
        2
176
     1
 90
        2
176
     1
 90
        1
176
     1
 90
        2
176
     1
 40
0.6
176
     1
 40
30.0
176
     1
 62
     7
420
 16777215
176
     1
 90
        1
176
     1
 90
        0
176
     1
 62
     7
176
     1
 62
   257
176
     1
 90
        1
176
     1
 90
        1
176
     1
 40
1.0
176
     1
 90
        0
176
     1
 62
   257
176
     1
 40
1.0
176
     1
 90
        1
176
     1
 90
        6
176
     1
 90
        2
176
     1
 62
     7
176
     1
 90
        5
176
     1
 90
        0
176
     1
 90
        0
176
     1
290
     0
176
     1
 90
       13
176
     1
 40
0.0
176
     1
 90
        0
176
     1
290
     0
176
     1
290
     1
176
     1
290
     1
176
     1
290
     0
176
     1
290
     0
176
     1
290
     0
176
     1
290
     0
176
     1
290
     0
176
     1
290
     0
176
     1
 90
       50
176
     1
 40
0.0
176
     1
 40
1.0
176
     1
 90
        0
176
     1
 62
    18
420
        0
176
     1
 90
       50
176
     1
 90
        3
176
     1
 62
     5
420
      255
176
     1
290
     0
176
     1
 90
       50
176
     1
 90
       50
176
     1
 90
       50
176
     1
290
     0
176
     1
 90
       50
176
     1
 62
   256
176
     0
 40
1.0
176
     0
 90
        2
176
     1
  1
strokes_ogs.tif
176
     1
290
     0
176
     1
 40
1.0
176
     1
 40
1.0
176
     1
  0
VISUALSTYLE
  5
31
102
{ACAD_REACTORS
330
2A
102
}
330
2A
100
AcDbVisualStyle
  2
Hidden
 70
     6
177
     3
291
     0
 70
    58
 90
        1
176
     1
 90
        2
176
     1
 90
        2
176
     1
 90
        0
176
     1
 40
0.6
176
     1
 40
30.0
176
     1
 62
     7
420
 16777215
176
     1
 90
        2
176
     1
 90
        2
176
     1
 62
     7
176
     1
 62
   257
176
     1
 90
        2
176
     1
 90
        1
176
     1
 40
40.0
176
     1
 90
        0
176
     1
 62
   257
176
     1
 40
1.0
176
     1
 90
        1
176
     1
 90
        6
176
     1
 90
        2
176
     1
 62
     7
176
     1
 90
        3
176
     1
 90
        0
176
     1
 90
        0
176
     1
290
     0
176
     1
 90
        1
176
     1
 40
0.0
176
     1
 90
        0
176
     1
290
     0
176
     1
290
     1
176
     1
290
     1
176
     1
290
     0
176
     1
290
     0
176
     1
290
     0
176
     1
290
     0
176
     1
290
     0
176
     1
290
     0
176
     1
 90
       50
176
     1
 40
0.0
176
     1
 40
1.0
176
     1
 90
        0
176
     1
 62
    18
420
        0
176
     1
 90
       50
176
     1
 90
        3
176
     1
 62
     5
420
      255
176
     1
290
     0
176
     1
 90
       50
176
     1
 90
       50
176
     1
 90
       50
176
     1
290
     0
176
     1
 90
       50
176
     1
 62
   256
176
     0
 40
1.0
176
     0
 90
        2
176
     1
  1
strokes_ogs.tif
176
     1
290
     0
176
     1
 40
1.0
176
     1
 40
1.0
176
     1
  0
VISUALSTYLE
  5
3B
102
{ACAD_REACTORS
330
2A
102
}
330
2A
100
AcDbVisualStyle
  2
JitterOff
 70
    20
177
     3
291
     1
 70
    58
 90
        2
176
     0
 90
        2
176
     0
 90
        0
176
     0
 90
        0
176
     0
 40
0.6
176
     0
 40
30.0
176
     0
 62
     7
420
 16777215
176
     0
 90
        1
176
     0
 90
        4
176
     0
 62
     7
176
     0
 62
   257
176
     0
 90
        1
176
     0
 90
        1
176
     0
 40
1.0
176
     0
 90
       10
176
     2
 62
     7
176
     0
 40
1.0
176
     0
 90
        1
176
     0
 90
        6
176
     0
 90
        2
176
     0
 62
     7
176
     0
 90
        5
176
     0
 90
        0
176
     0
 90
        0
176
     0
290
     0
176
     0
 90
        1
176
     0
 40
0.0
176
     0
 90
        0
176
     0
290
     0
176
     0
290
     1
176
     0
290
     1
176
     0
290
     0
176
     0
290
     0
176
     0
290
     0
176
     0
290
     0
176
     0
290
     0
176
     0
290
     0
176
     0
 90
       50
176
     0
 40
0.0
176
     0
 40
1.0
176
     0
 90
        0
176
     0
 62
    18
420
        0
176
     0
 90
       50
176
     0
 90
        3
176
     0
 62
     5
420
      255
176
     0
290
     0
176
     0
 90
       50
176
     0
 90
       50
176
     0
 90
       50
176
     0
290
     0
176
     0
 90
       50
176
     0
 62
   256
176
     0
 40
1.0
176
     0
 90
        2
176
     0
  1
strokes_ogs.tif
176
     0
290
     0
176
     0
 40
1.0
176
     0
 40
1.0
176
     0
  0
VISUALSTYLE
  5
38
102
{ACAD_REACTORS
330
2A
102
}
330
2A
100
AcDbVisualStyle
  2
Linepattern
 70
    14
177
     3
291
     1
 70
    58
 90
        2
176
     1
 90
        2
176
     1
 90
        0
176
     1
 90
        0
176
     1
 40
0.6
176
     1
 40
30.0
176
     1
 62
     7
420
 16777215
176
     1
 90
        1
176
     1
 90
        4
176
     1
 62
     7
176
     1
 62
   257
176
     1
 90
        7
176
     1
 90
        7
176
     1
 40
1.0
176
     1
 90
        8
176
     1
 62
     7
176
     1
 40
1.0
176
     1
 90
        1
176
     1
 90
        6
176
     1
 90
        2
176
     1
 62
     7
176
     1
 90
        5
176
     1
 90
        0
176
     1
 90
        0
176
     1
290
     0
176
     1
 90
        1
176
     1
 40
0.0
176
     1
 90
        0
176
     1
290
     0
176
     1
290
     1
176
     1
290
     1
176
     1
290
     0
176
     1
290
     0
176
     1
290
     0
176
     1
290
     0
176
     1
290
     0
176
     1
290
     0
176
     1
 90
       50
176
     1
 40
0.0
176
     1
 40
1.0
176
     1
 90
        0
176
     1
 62
    18
420
        0
176
     1
 90
       50
176
     1
 90
        3
176
     1
 62
     5
420
      255
176
     1
290
     0
176
     1
 90
       50
176
     1
 90
       50
176
     1
 90
       50
176
     1
290
     0
176
     1
 90
       50
176
     1
 62
   256
176
     0
 40
1.0
176
     0
 90
        2
176
     1
  1
strokes_ogs.tif
176
     1
290
     0
176
     1
 40
1.0
176
     1
 40
1.0
176
     1
  0
VISUALSTYLE
  5
3C
102
{ACAD_REACTORS
330
2A
102
}
330
2A
100
AcDbVisualStyle
  2
OverhangOff
 70
    21
177
     3
291
     1
 70
    58
 90
        2
176
     0
 90
        2
176
     0
 90
        0
176
     0
 90
        0
176
     0
 40
0.6
176
     0
 40
30.0
176
     0
 62
     7
420
 16777215
176
     0
 90
        1
176
     0
 90
        4
176
     0
 62
     7
176
     0
 62
   257
176
     0
 90
        1
176
     0
 90
        1
176
     0
 40
1.0
176
     0
 90
        9
176
     2
 62
     7
176
     0
 40
1.0
176
     0
 90
        1
176
     0
 90
        6
176
     0
 90
        2
176
     0
 62
     7
176
     0
 90
        5
176
     0
 90
        0
176
     0
 90
        0
176
     0
290
     0
176
     0
 90
        1
176
     0
 40
0.0
176
     0
 90
        0
176
     0
290
     0
176
     0
290
     1
176
     0
290
     1
176
     0
290
     0
176
     0
290
     0
176
     0
290
     0
176
     0
290
     0
176
     0
290
     0
176
     0
290
     0
176
     0
 90
       50
176
     0
 40
0.0
176
     0
 40
1.0
176
     0
 90
        0
176
     0
 62
    18
420
        0
176
     0
 90
       50
176
     0
 90
        3
176
     0
 62
     5
420
      255
176
     0
290
     0
176
     0
 90
       50
176
     0
 90
       50
176
     0
 90
       50
176
     0
290
     0
176
     0
 90
       50
176
     0
 62
   256
176
     0
 40
1.0
176
     0
 90
        2
176
     0
  1
strokes_ogs.tif
176
     0
290
     0
176
     0
 40
1.0
176
     0
 40
1.0
176
     0
  0
VISUALSTYLE
  5
33
102
{ACAD_REACTORS
330
2A
102
}
330
2A
100
AcDbVisualStyle
  2
Realistic
 70
     8
177
     3
291
     0
 70
    58
 90
        2
176
     1
 90
        3
176
     1
 90
        0
176
     1
 90
        2
176
     1
 40
0.6
176
     1
 40
30.0
176
     1
 62
     7
420
 16777215
176
     1
 90
        0
176
     1
 90
        0
176
     1
 62
     7
176
     1
 62
   257
176
     1
 90
        1
176
     1
 90
        1
176
     1
 40
1.0
176
     1
 90
        8
176
     1
 62
   257
176
     1
 40
1.0
176
     1
 90
        1
176
     1
 90
        6
176
     1
 90
        2
176
     1
 62
     7
176
     1
 90
        3
176
     1
 90
        0
176
     1
 90
        0
176
     1
290
     0
176
     1
 90
       13
176
     1
 40
0.0
176
     1
 90
        0
176
     1
290
     0
176
     1
290
     1
176
     1
290
     1
176
     1
290
     0
176
     1
290
     0
176
     1
290
     0
176
     1
290
     0
176
     1
290
     0
176
     1
290
     0
176
     1
 90
       50
176
     1
 40
0.0
176
     1
 40
1.0
176
     1
 90
        0
176
     1
 62
    18
420
        0
176
     1
 90
       50
176
     1
 90
        3
176
     1
 62
     5
420
      255
176
     1
290
     0
176
     1
 90
       50
176
     1
 90
       50
176
     1
 90
       50
176
     1
290
     0
176
     1
 90
       50
176
     1
 62
   256
176
     0
 40
1.0
176
     0
 90
        2
176
     1
  1
strokes_ogs.tif
176
     1
290
     0
176
     1
 40
1.0
176
     1
 40
1.0
176
     1
  0
VISUALSTYLE
  5
42
102
{ACAD_REACTORS
330
2A
102
}
330
2A
100
AcDbVisualStyle
  2
Shaded
 70
    27
177
     3
291
     0
 70
    58
 90
        2
176
     1
 90
        2
176
     1
 90
        1
176
     1
 90
        2
176
     1
 40
0.6
176
     1
 40
30.0
176
     1
 62
     7
420
 16777215
176
     1
 90
        0
176
     1
 90
        4
176
     1
 62
     7
176
     1
 62
   257
176
     1
 90
        1
176
     1
 90
        1
176
     1
 40
1.0
176
     1
 90
        8
176
     1
 62
   257
176
     1
 40
1.0
176
     1
 90
        1
176
     1
 90
        6
176
     1
 90
        2
176
     1
 62
     8
420
  7895160
176
     1
 90
        3
176
     1
 90
        0
176
     1
 90
        0
176
     1
290
     0
176
     1
 90
        5
176
     1
 40
0.0
176
     1
 90
        0
176
     1
290
     0
176
     1
290
     1
176
     1
290
     1
176
     1
290
     0
176
     1
290
     0
176
     1
290
     0
176
     1
290
     0
176
     1
290
     0
176
     1
290
     0
176
     1
 90
       50
176
     1
 40
0.0
176
     1
 40
1.0
176
     1
 90
        0
176
     1
 62
    18
420
        0
176
     1
 90
       50
176
     1
 90
        3
176
     1
 62
     5
420
      255
176
     1
290
     0
176
     1
 90
       50
176
     1
 90
       50
176
     1
 90
       50
176
     1
290
     0
176
     1
 90
       50
176
     1
 62
   256
176
     0
 40
1.0
176
     0
 90
        2
176
     1
  1
strokes_ogs.tif
176
     1
290
     0
176
     1
 40
1.0
176
     1
 40
1.0
176
     1
  0
VISUALSTYLE
  5
41
102
{ACAD_REACTORS
330
2A
102
}
330
2A
100
AcDbVisualStyle
  2
Shaded with edges
 70
    26
177
     3
291
     0
 70
    58
 90
        2
176
     1
 90
        2
176
     1
 90
        1
176
     1
 90
        2
176
     1
 40
0.6
176
     1
 40
30.0
176
     1
 62
     7
420
 16777215
176
     1
 90
        1
176
     1
 90
        2
176
     1
 62
     7
176
     1
 62
   257
176
     1
 90
        2
176
     1
 90
        1
176
     1
 40
1.0
176
     1
 90
        8
176
     1
 62
   257
176
     1
 40
1.0
176
     1
 90
        1
176
     1
 90
        6
176
     1
 90
        2
176
     1
 62
     7
176
     1
 90
        3
176
     1
 90
        0
176
     1
 90
        0
176
     1
290
     0
176
     1
 90
        5
176
     1
 40
0.0
176
     1
 90
        0
176
     1
290
     0
176
     1
290
     1
176
     1
290
     1
176
     1
290
     0
176
     1
290
     0
176
     1
290
     0
176
     1
290
     0
176
     1
290
     0
176
     1
290
     0
176
     1
 90
       50
176
     1
 40
0.0
176
     1
 40
1.0
176
     1
 90
        0
176
     1
 62
    18
420
        0
176
     1
 90
       50
176
     1
 90
        3
176
     1
 62
     5
420
      255
176
     1
290
     0
176
     1
 90
       50
176
     1
 90
       50
176
     1
 90
       50
176
     1
290
     0
176
     1
 90
       50
176
     1
 62
   256
176
     0
 40
1.0
176
     0
 90
        2
176
     1
  1
strokes_ogs.tif
176
     1
290
     0
176
     1
 40
1.0
176
     1
 40
1.0
176
     1
  0
VISUALSTYLE
  5
3E
102
{ACAD_REACTORS
330
2A
102
}
330
2A
100
AcDbVisualStyle
  2
Shades of Gray
 70
    23
177
     3
291
     0
 70
    58
 90
        2
176
     1
 90
        2
176
     1
 90
        3
176
     1
 90
        0
176
     1
 40
0.6
176
     1
 40
30.0
176
     1
 62
     7
420
 16777215
176
     1
 90
        2
176
     1
 90
        2
176
     1
 62
     7
176
     1
 62
     7
176
     1
 90
        1
176
     1
 90
        1
176
     1
 40
40.0
176
     1
 90
        8
176
     1
 62
     7
176
     1
 40
1.0
176
     1
 90
        1
176
     1
 90
        6
176
     1
 90
        2
176
     1
 62
     7
176
     1
 90
        3
176
     1
 90
        0
176
     1
 90
        0
176
     1
290
     0
176
     1
 90
        1
176
     1
 40
0.0
176
     1
 90
        0
176
     1
290
     0
176
     1
290
     1
176
     1
290
     1
176
     1
290
     0
176
     1
290
     0
176
     1
290
     0
176
     1
290
     0
176
     1
290
     0
176
     1
290
     0
176
     1
 90
       50
176
     1
 40
0.0
176
     1
 40
1.0
176
     1
 90
        0
176
     1
 62
    18
420
        0
176
     1
 90
       50
176
     1
 90
        3
176
     1
 62
     5
420
      255
176
     1
290
     0
176
     1
 90
       50
176
     1
 90
       50
176
     1
 90
       50
176
     1
290
     0
176
     1
 90
       50
176
     1
 62
   256
176
     0
 40
1.0
176
     0
 90
        2
176
     1
  1
strokes_ogs.tif
176
     1
290
     0
176
     1
 40
1.0
176
     1
 40
1.0
176
     1
  0
VISUALSTYLE
  5
3F
102
{ACAD_REACTORS
330
2A
102
}
330
2A
100
AcDbVisualStyle
  2
Sketchy
 70
    24
177
     3
291
     0
 70
    58
 90
        1
176
     1
 90
        2
176
     1
 90
        2
176
     1
 90
        0
176
     1
 40
0.6
176
     1
 40
30.0
176
     1
 62
     7
420
 16777215
176
     1
 90
        2
176
     1
 90
        2
176
     1
 62
     7
176
     1
 62
     7
176
     1
 90
        1
176
     1
 90
        1
176
     1
 40
40.0
176
     1
 90
       11
176
     1
 62
     7
176
     1
 40
1.0
176
     1
 90
        1
176
     1
 90
        6
176
     1
 90
        2
176
     1
 62
     7
176
     1
 90
        6
176
     1
 90
        0
176
     1
 90
        0
176
     1
290
     0
176
     1
 90
        1
176
     1
 40
0.0
176
     1
 90
        0
176
     1
290
     0
176
     1
290
     1
176
     1
290
     1
176
     1
290
     0
176
     1
290
     0
176
     1
290
     0
176
     1
290
     0
176
     1
290
     0
176
     1
290
     0
176
     1
 90
       50
176
     1
 40
0.0
176
     1
 40
1.0
176
     1
 90
        0
176
     1
 62
    18
420
        0
176
     1
 90
       50
176
     1
 90
        3
176
     1
 62
     5
420
      255
176
     1
290
     0
176
     1
 90
       50
176
     1
 90
       50
176
     1
 90
       50
176
     1
290
     0
176
     1
 90
       50
176
     1
 62
   256
176
     0
 40
1.0
176
     0
 90
        2
176
     1
  1
strokes_ogs.tif
176
     1
290
     0
176
     1
 40
1.0
176
     1
 40
1.0
176
     1
  0
VISUALSTYLE
  5
37
102
{ACAD_REACTORS
330
2A
102
}
330
2A
100
AcDbVisualStyle
  2
Thicken
 70
    13
177
     3
291
     1
 70
    58
 90
        2
176
     1
 90
        2
176
     1
 90
        0
176
     1
 90
        0
176
     1
 40
0.6
176
     1
 40
30.0
176
     1
 62
     7
420
 16777215
176
     1
 90
        1
176
     1
 90
        4
176
     1
 62
     7
176
     1
 62
   257
176
     1
 90
        1
176
     1
 90
        1
176
     1
 40
1.0
176
     1
 90
       12
176
     1
 62
     7
176
     1
 40
1.0
176
     1
 90
        1
176
     1
 90
        6
176
     1
 90
        2
176
     1
 62
     7
176
     1
 90
        5
176
     1
 90
        0
176
     1
 90
        0
176
     1
290
     0
176
     1
 90
        1
176
     1
 40
0.0
176
     1
 90
        0
176
     1
290
     0
176
     1
290
     1
176
     1
290
     1
176
     1
290
     0
176
     1
290
     0
176
     1
290
     0
176
     1
290
     0
176
     1
290
     0
176
     1
290
     0
176
     1
 90
       50
176
     1
 40
0.0
176
     1
 40
1.0
176
     1
 90
        0
176
     1
 62
    18
420
        0
176
     1
 90
       50
176
     1
 90
        3
176
     1
 62
     5
420
      255
176
     1
290
     0
176
     1
 90
       50
176
     1
 90
       50
176
     1
 90
       50
176
     1
290
     0
176
     1
 90
       50
176
     1
 62
   256
176
     0
 40
1.0
176
     0
 90
        2
176
     1
  1
strokes_ogs.tif
176
     1
290
     0
176
     1
 40
1.0
176
     1
 40
1.0
176
     1
  0
VISUALSTYLE
  5
30
102
{ACAD_REACTORS
330
2A
102
}
330
2A
100
AcDbVisualStyle
  2
Wireframe
 70
     5
177
     3
291
     0
 70
    58
 90
        0
176
     1
 90
        2
176
     1
 90
        0
176
     1
 90
        0
176
     1
 40
0.6
176
     1
 40
30.0
176
     1
 62
     7
420
 16777215
176
     1
 90
        1
176
     1
 90
        4
176
     1
 62
     7
176
     1
 62
   257
176
     1
 90
        1
176
     1
 90
        1
176
     1
 40
1.0
176
     1
 90
        0
176
     1
 62
   257
176
     1
 40
1.0
176
     1
 90
        1
176
     1
 90
        6
176
     1
 90
        2
176
     1
 62
     7
176
     1
 90
        3
176
     1
 90
        0
176
     1
 90
        0
176
     1
290
     0
176
     1
 90
        1
176
     1
 40
0.0
176
     1
 90
        0
176
     1
290
     0
176
     1
290
     1
176
     1
290
     1
176
     1
290
     0
176
     1
290
     0
176
     1
290
     0
176
     1
290
     0
176
     1
290
     0
176
     1
290
     0
176
     1
 90
       50
176
     1
 40
0.0
176
     1
 40
1.0
176
     1
 90
        0
176
     1
 62
    18
420
        0
176
     1
 90
       50
176
     1
 90
        3
176
     1
 62
     5
420
      255
176
     1
290
     0
176
     1
 90
       50
176
     1
 90
       50
176
     1
 90
       50
176
     1
290
     0
176
     1
 90
       50
176
     1
 62
   256
176
     0
 40
1.0
176
     0
 90
        2
176
     1
  1
strokes_ogs.tif
176
     1
290
     0
176
     1
 40
1.0
176
     1
 40
1.0
176
     1
  0
VISUALSTYLE
  5
40
102
{ACAD_REACTORS
330
2A
102
}
330
2A
100
AcDbVisualStyle
  2
X-Ray
 70
    25
177
     3
291
     0
 70
    58
 90
        2
176
     1
 90
        2
176
     1
 90
        1
176
     1
 90
        1
176
     1
 40
0.5
176
     1
 40
30.0
176
     1
 62
     7
420
 16777215
176
     1
 90
        1
176
     1
 90
        0
176
     1
 62
     7
176
     1
 62
   257
176
     1
 90
        1
176
     1
 90
        1
176
     1
 40
1.0
176
     1
 90
        8
176
     1
 62
     7
176
     1
 40
1.0
176
     1
 90
        1
176
     1
 90
        6
176
     1
 90
        2
176
     1
 62
     7
176
     1
 90
        3
176
     1
 90
        0
176
     1
 90
        0
176
     1
290
     0
176
     1
 90
       13
176
     1
 40
0.0
176
     1
 90
        0
176
     1
290
     0
176
     1
290
     1
176
     1
290
     1
176
     1
290
     0
176
     1
290
     0
176
     1
290
     0
176
     1
290
     0
176
     1
290
     0
176
     1
290
     0
176
     1
 90
       50
176
     1
 40
0.0
176
     1
 40
1.0
176
     1
 90
        0
176
     1
 62
    18
420
        0
176
     1
 90
       50
176
     1
 90
        3
176
     1
 62
     5
420
      255
176
     1
290
     0
176
     1
 90
       50
176
     1
 90
       50
176
     1
 90
       50
176
     1
290
     0
176
     1
 90
       50
176
     1
 62
   256
176
     0
 40
1.0
176
     0
 90
        2
176
     1
  1
strokes_ogs.tif
176
     1
290
     0
176
     1
 40
1.0
176
     1
 40
1.0
176
     1
  0
DICTIONARYVAR
  5
401
102
{ACAD_REACTORS
330
400
102
}
330
400
100
DictionaryVariables
280
     0
  1
1:1
  0
DICTIONARYVAR
  5
406
102
{ACAD_REACTORS
330
400
102
}
330
400
100
DictionaryVariables
280
     0
  1
3.500000
  0
DICTIONARYVAR
  5
407
102
{ACAD_REACTORS
330
400
102
}
330
400
100
DictionaryVariables
280
     0
  1
acadiso.lin
  0
DICTIONARYVAR
  5
403
102
{ACAD_REACTORS
330
400
102
}
330
400
100
DictionaryVariables
280
     0
  1
STANDARD
  0
DICTIONARYVAR
  5
402
102
{ACAD_REACTORS
330
400
102
}
330
400
100
DictionaryVariables
280
     0
  1
STANDARD
  0
DICTIONARYVAR
  5
424
102
{ACAD_REACTORS
330
400
102
}
330
400
100
DictionaryVariables
280
     0
  1
Metric50
  0
DICTIONARYVAR
  5
425
102
{ACAD_REACTORS
330
400
102
}
330
400
100
DictionaryVariables
280
     0
  1
Metric50
  0
DICTIONARY
  5
426
330
5A
100
AcDbDictionary
280
     1
281
     1
  3
ACAD_ROUNDTRIP_2008_TABLESTYLE_CELLSTYLEMAP
360
427
  0
CELLSTYLEMAP
  5
427
102
{ACAD_REACTORS
330
426
102
}
330
426
100
AcDbCellStyleMap
 90
        3
300
CELLSTYLE
  1
TABLEFORMAT_BEGIN
 90
        5
170
     1
 91
        0
 92
    32768
 62
   257
 93
        1
300
CONTENTFORMAT
  1
CONTENTFORMAT_BEGIN
 90
        0
 91
        0
 92
        4
 93
        0
300

 40
0.0
140
1.0
 94
        5
 62
     0
340
11
144
6.0
309
CONTENTFORMAT_END
171
     1
301
MARGIN
  1
CELLMARGIN_BEGIN
 40
1.5
 40
1.5
 40
1.5
 40
1.5
 40
1.5
 40
1.5
309
CELLMARGIN_END
 94
        6
 95
        1
302
GRIDFORMAT
  1
GRIDFORMAT_BEGIN
 90
        0
 91
        1
 62
     0
 92
       -2
340
14
 93
        0
 40
0.045
309
GRIDFORMAT_END
 95
        2
302
GRIDFORMAT
  1
GRIDFORMAT_BEGIN
 90
        0
 91
        1
 62
     0
 92
       -2
340
14
 93
        0
 40
0.045
309
GRIDFORMAT_END
 95
        4
302
GRIDFORMAT
  1
GRIDFORMAT_BEGIN
 90
        0
 91
        1
 62
     0
 92
       -2
340
14
 93
        0
 40
0.045
309
GRIDFORMAT_END
 95
        8
302
GRIDFORMAT
  1
GRIDFORMAT_BEGIN
 90
        0
 91
        1
 62
     0
 92
       -2
340
14
 93
        0
 40
0.045
309
GRIDFORMAT_END
 95
       16
302
GRIDFORMAT
  1
GRIDFORMAT_BEGIN
 90
        0
 91
        1
 62
     0
 92
       -2
340
14
 93
        0
 40
0.045
309
GRIDFORMAT_END
 95
       32
302
GRIDFORMAT
  1
GRIDFORMAT_BEGIN
 90
        0
 91
        1
 62
     0
 92
       -2
340
14
 93
        0
 40
0.045
309
GRIDFORMAT_END
309
TABLEFORMAT_END
  1
CELLSTYLE_BEGIN
 90
        1
 91
        1
300
_TITLE
309
CELLSTYLE_END
300
CELLSTYLE
  1
TABLEFORMAT_BEGIN
 90
        5
170
     1
 91
        0
 92
        0
 62
   257
 93
        1
300
CONTENTFORMAT
  1
CONTENTFORMAT_BEGIN
 90
        0
 91
        0
 92
        4
 93
        0
300

 40
0.0
140
1.0
 94
        5
 62
     0
340
11
144
4.5
309
CONTENTFORMAT_END
171
     1
301
MARGIN
  1
CELLMARGIN_BEGIN
 40
1.5
 40
1.5
 40
1.5
 40
1.5
 40
1.5
 40
1.5
309
CELLMARGIN_END
 94
        6
 95
        1
302
GRIDFORMAT
  1
GRIDFORMAT_BEGIN
 90
        0
 91
        1
 62
     0
 92
       -2
340
14
 93
        0
 40
0.045
309
GRIDFORMAT_END
 95
        2
302
GRIDFORMAT
  1
GRIDFORMAT_BEGIN
 90
        0
 91
        1
 62
     0
 92
       -2
340
14
 93
        0
 40
0.045
309
GRIDFORMAT_END
 95
        4
302
GRIDFORMAT
  1
GRIDFORMAT_BEGIN
 90
        0
 91
        1
 62
     0
 92
       -2
340
14
 93
        0
 40
0.045
309
GRIDFORMAT_END
 95
        8
302
GRIDFORMAT
  1
GRIDFORMAT_BEGIN
 90
        0
 91
        1
 62
     0
 92
       -2
340
14
 93
        0
 40
0.045
309
GRIDFORMAT_END
 95
       16
302
GRIDFORMAT
  1
GRIDFORMAT_BEGIN
 90
        0
 91
        1
 62
     0
 92
       -2
340
14
 93
        0
 40
0.045
309
GRIDFORMAT_END
 95
       32
302
GRIDFORMAT
  1
GRIDFORMAT_BEGIN
 90
        0
 91
        1
 62
     0
 92
       -2
340
14
 93
        0
 40
0.045
309
GRIDFORMAT_END
309
TABLEFORMAT_END
  1
CELLSTYLE_BEGIN
 90
        2
 91
        1
300
_HEADER
309
CELLSTYLE_END
300
CELLSTYLE
  1
TABLEFORMAT_BEGIN
 90
        5
170
     1
 91
        0
 92
        0
 62
   257
 93
        1
300
CONTENTFORMAT
  1
CONTENTFORMAT_BEGIN
 90
        0
 91
        0
 92
        4
 93
        0
300

 40
0.0
140
1.0
 94
        2
 62
     0
340
11
144
4.5
309
CONTENTFORMAT_END
171
     1
301
MARGIN
  1
CELLMARGIN_BEGIN
 40
1.5
 40
1.5
 40
1.5
 40
1.5
 40
1.5
 40
1.5
309
CELLMARGIN_END
 94
        6
 95
        1
302
GRIDFORMAT
  1
GRIDFORMAT_BEGIN
 90
        0
 91
        1
 62
     0
 92
       -2
340
14
 93
        0
 40
0.045
309
GRIDFORMAT_END
 95
        2
302
GRIDFORMAT
  1
GRIDFORMAT_BEGIN
 90
        0
 91
        1
 62
     0
 92
       -2
340
14
 93
        0
 40
0.045
309
GRIDFORMAT_END
 95
        4
302
GRIDFORMAT
  1
GRIDFORMAT_BEGIN
 90
        0
 91
        1
 62
     0
 92
       -2
340
14
 93
        0
 40
0.045
309
GRIDFORMAT_END
 95
        8
302
GRIDFORMAT
  1
GRIDFORMAT_BEGIN
 90
        0
 91
        1
 62
     0
 92
       -2
340
14
 93
        0
 40
0.045
309
GRIDFORMAT_END
 95
       16
302
GRIDFORMAT
  1
GRIDFORMAT_BEGIN
 90
        0
 91
        1
 62
     0
 92
       -2
340
14
 93
        0
 40
0.045
309
GRIDFORMAT_END
 95
       32
302
GRIDFORMAT
  1
GRIDFORMAT_BEGIN
 90
        0
 91
        1
 62
     0
 92
       -2
340
14
 93
        0
 40
0.045
309
GRIDFORMAT_END
309
TABLEFORMAT_END
  1
CELLSTYLE_BEGIN
 90
        3
 91
        2
300
_DATA
309
CELLSTYLE_END
  0
ENDSEC
  0
SECTION
  2
ACDSDATA
 70
     2
 71
     8
  0
ACDSSCHEMA
 90
        0
  1
AcDb_Thumbnail_Schema
  2
AcDbDs::ID
280
    10
 91
        8
  2
Thumbnail_Data
280
    15
 91
        0
101
ACDSRECORD
 95
        0
 90
        1
  2
AcDbDs::TreatedAsObjectData
280
     1
291
     1
101
ACDSRECORD
 95
        0
 90
        2
  2
AcDbDs::Legacy
280
     1
291
     1
101
ACDSRECORD
  1
AcDbDs::ID
 90
        3
  2
AcDs:Indexable
280
     1
291
     1
101
ACDSRECORD
  1
AcDbDs::ID
 90
        4
  2
AcDbDs::HandleAttribute
280
     7
282
     1
  0
ACDSSCHEMA
 90
        1
  1
AcDbDs::TreatedAsObjectDataSchema
  2
AcDbDs::TreatedAsObjectData
280
     1
 91
        0
  0
ACDSSCHEMA
 90
        2
  1
AcDbDs::LegacySchema
  2
AcDbDs::Legacy
280
     1
 91
        0
  0
ACDSSCHEMA
 90
        3
  1
AcDbDs::IndexedPropertySchema
  2
AcDs:Indexable
280
     1
 91
        0
  0
ACDSSCHEMA
 90
        4
  1
AcDbDs::HandleAttributeSchema
  2
AcDbDs::HandleAttribute
280
     7
 91
        1
284
     1
  0
ACDSRECORD
 90
        0
  2
AcDbDs::ID
280
    10
320
22
  2
Thumbnail_Data
280
    15
 94
      995
310
89504E470D0A1A0A0000000D4948445200000100000000C00803000000DC334D5400000300504C5445212830FFFFFF2128300000000000000000000000000000000000000000000000000000330000660000990000CC0000FF0033000033330033660033990033CC0033FF0066000066330066660066990066CC0066FF0099
310
000099330099660099990099CC0099FF00CC0000CC3300CC6600CC9900CCCC00CCFF00FF0000FF3300FF6600FF9900FFCC00FFFF3300003300333300663300993300CC3300FF3333003333333333663333993333CC3333FF3366003366333366663366993366CC3366FF3399003399333399663399993399CC3399FF33CC00
310
33CC3333CC6633CC9933CCCC33CCFF33FF0033FF3333FF6633FF9933FFCC33FFFF6600006600336600666600996600CC6600FF6633006633336633666633996633CC6633FF6666006666336666666666996666CC6666FF6699006699336699666699996699CC6699FF66CC0066CC3366CC6666CC9966CCCC66CCFF66FF0066
310
FF3366FF6666FF9966FFCC66FFFF9900009900339900669900999900CC9900FF9933009933339933669933999933CC9933FF9966009966339966669966999966CC9966FF9999009999339999669999999999CC9999FF99CC0099CC3399CC6699CC9999CCCC99CCFF99FF0099FF3399FF6699FF9999FFCC99FFFFCC0000CC00
310
33CC0066CC0099CC00CCCC00FFCC3300CC3333CC3366CC3399CC33CCCC33FFCC6600CC6633CC6666CC6699CC66CCCC66FFCC9900CC9933CC9966CC9999CC99CCCC99FFCCCC00CCCC33CCCC66CCCC99CCCCCCCCCCFFCCFF00CCFF33CCFF66CCFF99CCFFCCCCFFFFFF0000FF0033FF0066FF0099FF00CCFF00FFFF3300FF3333
310
FF3366FF3399FF33CCFF33FFFF6600FF6633FF6666FF6699FF66CCFF66FFFF9900FF9933FF9966FF9999FF99CCFF99FFFFCC00FFCC33FFCC66FFCC99FFCCCCFFCCFFFFFF00FFFF33FFFF66FFFF99FFFFCCFFFFFF0000000D0D0D1A1A1A2828283535354343435050505D5D5D6B6B6B787878868686939393A1A1A1AEAEAEBB
310
BBBBC9C9C9D6D6D6E4E4E4F1F1F1FFFFFF0000000000000000000000000000000000000000000000000000000000002E4550F10000009E4944415478DAEDD9310E8430100441FFFFBF9B239170102040BAA8AB1284896602589BB5000000000000000000000000000000FE6B76E5F4BFD75CFA9BDB40FE474BA9FCA906E6D5
310
72267FA7817A01F3E991021410C8DF68602E03E069060C1630E902BC047C054C424661BB21FBE15E7E05E48FC4AE47C1D1C3F1E3587C55B57F8C0000000000000000000000000000000000000000000000000000E46D8B6B5718D3A271D50000000049454E44AE426082
  0
ENDSEC
  0
EOF
