  0
SECTION
  2
HEADER
  9
$ACADVER
  1
AC1032
  9
$ACADMAINTVER
 90
      155
  9
$DWGCODEPAGE
  3
ANSI_1252
  9
$LASTSAVEDBY
  1
monika
  9
$REQUIREDVERSIONS
160
                 0
  9
$INSBASE
 10
0.0
 20
0.0
 30
0.0
  9
$EXTMIN
 10
100.0
 20
99.99999999999991
 30
0.0
  9
$EXTMAX
 10
8300.0
 20
5840.0
 30
0.0
  9
$LIMMIN
 10
0.0
 20
0.0
  9
$LIMMAX
 10
8400.0
 20
5940.0
  9
$ORTHOMODE
 70
     0
  9
$REGENMODE
 70
     1
  9
$FILLMODE
 70
     1
  9
$QTEXTMODE
 70
     0
  9
$MIRRTEXT
 70
     1
  9
$LTSCALE
 40
20.0
  9
$ATTMODE
 70
     1
  9
$TEXTSIZE
 40
127.0
  9
$TRACEWID
 40
1.0
  9
$TEXTSTYLE
  7
Standard
  9
$CLAYER
  8
0
  9
$CELTYPE
  6
ByLayer
  9
$CECOLOR
 62
   256
  9
$CELTSCALE
 40
1.0
  9
$DISPSILH
 70
     0
  9
$DIMSCALE
 40
1.0
  9
$DIMASZ
 40
0.0
  9
$DIMEXO
 40
200.0
  9
$DIMDLI
 40
3.75
  9
$DIMRND
 40
0.0
  9
$DIMDLE
 40
0.0
  9
$DIMEXE
 40
19.812
  9
$DIMTP
 40
0.0
  9
$DIMTM
 40
0.0
  9
$DIMTXT
 40
127.0
  9
$DIMCEN
 40
2.5
  9
$DIMTSZ
 40
0.0
  9
$DIMTOL
 70
     0
  9
$DIMLIM
 70
     0
  9
$DIMTIH
 70
     1
  9
$DIMTOH
 70
     1
  9
$DIMSE1
 70
     0
  9
$DIMSE2
 70
     0
  9
$DIMTAD
 70
     1
  9
$DIMZIN
 70
     0
  9
$DIMBLK
  1

  9
$DIMASO
 70
     1
  9
$DIMSHO
 70
     1
  9
$DIMPOST
  1

  9
$DIMAPOST
  1

  9
$DIMALT
 70
     0
  9
$DIMALTD
 70
     3
  9
$DIMALTF
 40
0.0393700787401575
  9
$DIMLFAC
 40
1.0
  9
$DIMTOFL
 70
     1
  9
$DIMTVP
 40
0.0
  9
$DIMTIX
 70
     0
  9
$DIMSOXD
 70
     0
  9
$DIMSAH
 70
     0
  9
$DIMBLK1
  1

  9
$DIMBLK2
  1

  9
$DIMSTYLE
  2
ISO-25
  9
$DIMCLRD
 70
     0
  9
$DIMCLRE
 70
     0
  9
$DIMCLRT
 70
     0
  9
$DIMTFAC
 40
1.0
  9
$DIMGAP
 40
30.48
  9
$DIMJUST
 70
     0
  9
$DIMSD1
 70
     0
  9
$DIMSD2
 70
     0
  9
$DIMTOLJ
 70
     0
  9
$DIMTZIN
 70
     0
  9
$DIMALTZ
 70
     0
  9
$DIMALTTZ
 70
     0
  9
$DIMUPT
 70
     0
  9
$DIMDEC
 70
     0
  9
$DIMTDEC
 70
     0
  9
$DIMALTU
 70
     2
  9
$DIMALTTD
 70
     3
  9
$DIMTXSTY
  7
Standard
  9
$DIMAUNIT
 70
     0
  9
$DIMADEC
 70
     0
  9
$DIMALTRND
 40
0.0
  9
$DIMAZIN
 70
     0
  9
$DIMDSEP
 70
    44
  9
$DIMATFIT
 70
     3
  9
$DIMFRAC
 70
     0
  9
$DIMLDRBLK
  1

  9
$DIMLUNIT
 70
     2
  9
$DIMLWD
 70
    -2
  9
$DIMLWE
 70
    -2
  9
$DIMTMOVE
 70
     0
  9
$DIMFXL
 40
1.0
  9
$DIMFXLON
 70
     0
  9
$DIMJOGANG
 40
0.7853981633974483
  9
$DIMTFILL
 70
     0
  9
$DIMTFILLCLR
 70
     0
  9
$DIMARCSYM
 70
     0
  9
$DIMLTYPE
  6

  9
$DIMLTEX1
  6

  9
$DIMLTEX2
  6

  9
$DIMTXTDIRECTION
 70
     0
  9
$LUNITS
 70
     2
  9
$LUPREC
 70
     2
  9
$SKETCHINC
 40
1.0
  9
$FILLETRAD
 40
0.0
  9
$AUNITS
 70
     0
  9
$AUPREC
 70
     2
  9
$MENU
  1
.
  9
$ELEVATION
 40
0.0
  9
$PELEVATION
 40
0.0
  9
$THICKNESS
 40
0.0
  9
$LIMCHECK
 70
     0
  9
$CHAMFERA
 40
0.0
  9
$CHAMFERB
 40
0.0
  9
$CHAMFERC
 40
0.0
  9
$CHAMFERD
 40
0.0
  9
$SKPOLY
 70
     0
  9
$TDCREATE
 40
2460896.468993055
  9
$TDUCREATE
 40
2460896.385663669
  9
$TDUPDATE
 40
2460896.472384259
  9
$TDUUPDATE
 40
2460896.389050926
  9
$TDINDWG
 40
0.0004282523
  9
$TDUSRTIMER
 40
0.0004282523
  9
$USRTIMER
 70
     1
  9
$ANGBASE
 50
0.0
  9
$ANGDIR
 70
     0
  9
$PDMODE
 70
     0
  9
$PDSIZE
 40
-1.0
  9
$PLINEWID
 40
0.0
  9
$SPLFRAME
 70
     0
  9
$SPLINETYPE
 70
     6
  9
$SPLINESEGS
 70
     8
  9
$HANDSEED
  5
3F0
  9
$SURFTAB1
 70
     6
  9
$SURFTAB2
 70
     6
  9
$SURFTYPE
 70
     6
  9
$SURFU
 70
     6
  9
$SURFV
 70
     6
  9
$UCSBASE
  2

  9
$UCSNAME
  2

  9
$UCSORG
 10
0.0
 20
0.0
 30
0.0
  9
$UCSXDIR
 10
1.0
 20
0.0
 30
0.0
  9
$UCSYDIR
 10
0.0
 20
1.0
 30
0.0
  9
$UCSORTHOREF
  2

  9
$UCSORTHOVIEW
 70
     0
  9
$UCSORGTOP
 10
0.0
 20
0.0
 30
0.0
  9
$UCSORGBOTTOM
 10
0.0
 20
0.0
 30
0.0
  9
$UCSORGLEFT
 10
0.0
 20
0.0
 30
0.0
  9
$UCSORGRIGHT
 10
0.0
 20
0.0
 30
0.0
  9
$UCSORGFRONT
 10
0.0
 20
0.0
 30
0.0
  9
$UCSORGBACK
 10
0.0
 20
0.0
 30
0.0
  9
$PUCSBASE
  2

  9
$PUCSNAME
  2

  9
$PUCSORG
 10
0.0
 20
0.0
 30
0.0
  9
$PUCSXDIR
 10
1.0
 20
0.0
 30
0.0
  9
$PUCSYDIR
 10
0.0
 20
1.0
 30
0.0
  9
$PUCSORTHOREF
  2

  9
$PUCSORTHOVIEW
 70
     0
  9
$PUCSORGTOP
 10
0.0
 20
0.0
 30
0.0
  9
$PUCSORGBOTTOM
 10
0.0
 20
0.0
 30
0.0
  9
$PUCSORGLEFT
 10
0.0
 20
0.0
 30
0.0
  9
$PUCSORGRIGHT
 10
0.0
 20
0.0
 30
0.0
  9
$PUCSORGFRONT
 10
0.0
 20
0.0
 30
0.0
  9
$PUCSORGBACK
 10
0.0
 20
0.0
 30
0.0
  9
$USERI1
 70
     0
  9
$USERI2
 70
     0
  9
$USERI3
 70
     0
  9
$USERI4
 70
     0
  9
$USERI5
 70
     0
  9
$USERR1
 40
0.0
  9
$USERR2
 40
0.0
  9
$USERR3
 40
0.0
  9
$USERR4
 40
0.0
  9
$USERR5
 40
0.0
  9
$WORLDVIEW
 70
     1
  9
$SHADEDGE
 70
     3
  9
$SHADEDIF
 70
    70
  9
$TILEMODE
 70
     1
  9
$MAXACTVP
 70
    64
  9
$PINSBASE
 10
0.0
 20
0.0
 30
0.0
  9
$PLIMCHECK
 70
     0
  9
$PEXTMIN
 10
1.000000000000000E+20
 20
1.000000000000000E+20
 30
1.000000000000000E+20
  9
$PEXTMAX
 10
-1.000000000000000E+20
 20
-1.000000000000000E+20
 30
-1.000000000000000E+20
  9
$PLIMMIN
 10
0.0
 20
0.0
  9
$PLIMMAX
 10
420.0
 20
297.0
  9
$UNITMODE
 70
     0
  9
$VISRETAIN
 70
     1
  9
$PLINEGEN
 70
     0
  9
$PSLTSCALE
 70
     1
  9
$TREEDEPTH
 70
  3020
  9
$CMLSTYLE
  2
Standard
  9
$CMLJUST
 70
     0
  9
$CMLSCALE
 40
20.0
  9
$PROXYGRAPHICS
 70
     1
  9
$MEASUREMENT
 70
     1
  9
$CELWEIGHT
370
    -1
  9
$ENDCAPS
280
     0
  9
$JOINSTYLE
280
     0
  9
$LWDISPLAY
290
     1
  9
$INSUNITS
 70
     4
  9
$HYPERLINKBASE
  1

  9
$STYLESHEET
  1

  9
$XEDIT
290
     1
  9
$CEPSNTYPE
380
     0
  9
$PSTYLEMODE
290
     1
  9
$FINGERPRINTGUID
  2
{ee2c8b28-ddd4-4385-bd1c-a9e2cdb0568b}
  9
$VERSIONGUID
  2
{B75A05A1-94BC-BB4F-BFA8-BDB9B60F5F24}
  9
$EXTNAMES
290
     1
  9
$PSVPSCALE
 40
0.0
  9
$OLESTARTUP
290
     0
  9
$SORTENTS
280
   127
  9
$INDEXCTL
280
     0
  9
$HIDETEXT
280
     1
  9
$XCLIPFRAME
280
     2
  9
$HALOGAP
280
     0
  9
$OBSCOLOR
 70
   257
  9
$OBSLTYPE
280
     0
  9
$INTERSECTIONDISPLAY
280
     0
  9
$INTERSECTIONCOLOR
 70
   257
  9
$DIMASSOC
280
     2
  9
$PROJECTNAME
  1

  9
$CAMERADISPLAY
290
     0
  9
$LENSLENGTH
 40
50.0
  9
$CAMERAHEIGHT
 40
0.0
  9
$STEPSPERSEC
 40
2.0
  9
$STEPSIZE
 40
6.0
  9
$3DDWFPREC
 40
2.0
  9
$PSOLWIDTH
 40
5.0
  9
$PSOLHEIGHT
 40
80.0
  9
$LOFTANG1
 40
1.570796326794896
  9
$LOFTANG2
 40
1.570796326794896
  9
$LOFTMAG1
 40
0.0
  9
$LOFTMAG2
 40
0.0
  9
$LOFTPARAM
 70
     7
  9
$LOFTNORMALS
280
     1
  9
$LATITUDE
 40
37.795
  9
$LONGITUDE
 40
-122.394
  9
$NORTHDIRECTION
 40
0.0
  9
$TIMEZONE
 70
 -8000
  9
$LIGHTGLYPHDISPLAY
280
     1
  9
$TILEMODELIGHTSYNCH
280
     1
  9
$CMATERIAL
347
44
  9
$SOLIDHIST
280
     0
  9
$SHOWHIST
280
     1
  9
$DWFFRAME
280
     2
  9
$DGNFRAME
280
     2
  9
$REALWORLDSCALE
290
     1
  9
$INTERFERECOLOR
 62
   256
  9
$INTERFEREOBJVS
345
33
  9
$INTERFEREVPVS
346
30
  9
$CSHADOW
280
     0
  9
$SHADOWPLANELOCATION
 40
0.0
  0
ENDSEC
  0
SECTION
  2
CLASSES
  0
CLASS
  1
ACDBDICTIONARYWDFLT
  2
AcDbDictionaryWithDefault
  3
ObjectDBX Classes
 90
        0
 91
        1
280
     0
281
     0
  0
CLASS
  1
VISUALSTYLE
  2
AcDbVisualStyle
  3
ObjectDBX Classes
 90
     4095
 91
       24
280
     0
281
     0
  0
CLASS
  1
MATERIAL
  2
AcDbMaterial
  3
ObjectDBX Classes
 90
     1153
 91
        3
280
     0
281
     0
  0
CLASS
  1
SCALE
  2
AcDbScale
  3
ObjectDBX Classes
 90
     1153
 91
       17
280
     0
281
     0
  0
CLASS
  1
TABLESTYLE
  2
AcDbTableStyle
  3
ObjectDBX Classes
 90
     4095
 91
        1
280
     0
281
     0
  0
CLASS
  1
MLEADERSTYLE
  2
AcDbMLeaderStyle
  3
ACDB_MLEADERSTYLE_CLASS
 90
     4095
 91
        1
280
     0
281
     0
  0
CLASS
  1
SUN
  2
AcDbSun
  3
SCENEOE
 90
     1153
 91
        1
280
     0
281
     0
  0
CLASS
  1
DICTIONARYVAR
  2
AcDbDictionaryVar
  3
ObjectDBX Classes
 90
        0
 91
        7
280
     0
281
     0
  0
CLASS
  1
ACDBSECTIONVIEWSTYLE
  2
AcDbSectionViewStyle
  3
ObjectDBX Classes
 90
     1025
 91
        1
280
     0
281
     0
  0
CLASS
  1
ACDBDETAILVIEWSTYLE
  2
AcDbDetailViewStyle
  3
ObjectDBX Classes
 90
     1025
 91
        1
280
     0
281
     0
  0
CLASS
  1
RAPIDRTRENDERSETTINGS
  2
AcDbRapidRTRenderSettings
  3
ObjectDBX Classes
 90
     1024
 91
        7
280
     0
281
     0
  0
CLASS
  1
CELLSTYLEMAP
  2
AcDbCellStyleMap
  3
ObjectDBX Classes
 90
     1152
 91
        1
280
     0
281
     0
  0
ENDSEC
  0
SECTION
  2
TABLES
  0
TABLE
  2
VPORT
  5
8
330
0
100
AcDbSymbolTable
 70
     1
  0
VPORT
  5
29
330
8
100
AcDbSymbolTableRecord
100
AcDbViewportTableRecord
  2
*Active
 70
     0
 10
0.0
 20
0.0
 11
1.0
 21
1.0
 12
6910.677364930046
 22
4669.289062446549
 13
0.0
 23
0.0
 14
10.0
 24
10.0
 15
10.0
 25
10.0
 16
0.0
 26
0.0
 36
1.0
 17
0.0
 27
0.0
 37
0.0
 40
23750.27966548781
 41
1.327683615819209
 42
50.0
 43
0.0
 44
0.0
 50
0.0
 51
0.0
 71
     0
 72
  2000
 73
     1
 74
     3
 75
     0
 76
     0
 77
     0
 78
     0
281
     0
 65
     1
110
0.0
120
0.0
130
0.0
111
1.0
121
0.0
131
0.0
112
0.0
122
1.0
132
0.0
 79
     0
146
0.0
348
2F
 60
     3
 61
     5
292
     1
282
     1
141
0.0
142
0.0
 63
   250
361
5D
1001
ACAD_NAV_VCDISPLAY
1070
     3
  0
ENDTAB
  0
TABLE
  2
LTYPE
  5
5
330
0
100
AcDbSymbolTable
 70
     6
  0
LTYPE
  5
14
330
5
100
AcDbSymbolTableRecord
100
AcDbLinetypeTableRecord
  2
ByBlock
 70
     0
  3

 72
    65
 73
     0
 40
0.0
  0
LTYPE
  5
15
330
5
100
AcDbSymbolTableRecord
100
AcDbLinetypeTableRecord
  2
ByLayer
 70
     0
  3

 72
    65
 73
     0
 40
0.0
  0
LTYPE
  5
16
330
5
100
AcDbSymbolTableRecord
100
AcDbLinetypeTableRecord
  2
Continuous
 70
     0
  3
Solid line
 72
    65
 73
     0
 40
0.0
  0
LTYPE
  5
5E
330
5
100
AcDbSymbolTableRecord
100
AcDbLinetypeTableRecord
  2
HIDDEN
 70
     0
  3
Hidden __ __ __ __ __ __ __ __ __ __ __ __ __ __
 72
    65
 73
     2
 40
1.905
 49
1.27
 74
     0
 49
-0.635
 74
     0
  0
LTYPE
  5
5F
330
5
100
AcDbSymbolTableRecord
100
AcDbLinetypeTableRecord
  2
PHANTOM
 70
     0
  3
Phantom ______  __  __  ______  __  __  ______
 72
    65
 73
     6
 40
12.7
 49
6.349999999999999
 74
     0
 49
-1.27
 74
     0
 49
1.27
 74
     0
 49
-1.27
 74
     0
 49
1.27
 74
     0
 49
-1.27
 74
     0
  0
LTYPE
  5
60
330
5
100
AcDbSymbolTableRecord
100
AcDbLinetypeTableRecord
  2
CENTER
 70
     0
  3
Center ____ _ ____ _ ____ _ ____ _ ____ _ ____
 72
    65
 73
     4
 40
10.16
 49
6.349999999999999
 74
     0
 49
-1.27
 74
     0
 49
1.27
 74
     0
 49
-1.27
 74
     0
  0
LTYPE
  5
61
330
5
100
AcDbSymbolTableRecord
100
AcDbLinetypeTableRecord
  2
CENTERX2
 70
     0
  3
Center (2x) ________  __  ________  __  _____
 72
    65
 73
     4
 40
20.32
 49
12.7
 74
     0
 49
-2.54
 74
     0
 49
2.54
 74
     0
 49
-2.54
 74
     0
  0
LTYPE
  5
62
330
5
100
AcDbSymbolTableRecord
100
AcDbLinetypeTableRecord
  2
DOT2
 70
     0
  3
Dot (.5x) ........................................
 72
    65
 73
     2
 40
0.635
 49
0.0
 74
     0
 49
-0.635
 74
     0
  0
ENDTAB
  0
TABLE
  2
LAYER
  5
2
330
0
100
AcDbSymbolTable
 70
     2
  0
LAYER
  5
10
330
2
100
AcDbSymbolTableRecord
100
AcDbLayerTableRecord
  2
0
 70
     0
 62
     7
  6
Continuous
370
    -3
390
F
347
46
348
0
  0
LAYER
  5
63
330
2
100
AcDbSymbolTableRecord
100
AcDbLayerTableRecord
  2
FORMAT
 70
     0
 62
     7
  6
Continuous
370
    -3
390
F
347
46
348
0
  0
ENDTAB
  0
TABLE
  2
STYLE
  5
3
330
0
100
AcDbSymbolTable
 70
     2
  0
STYLE
  5
11
330
3
100
AcDbSymbolTableRecord
100
AcDbTextStyleTableRecord
  2
Standard
 70
     0
 40
0.0
 41
1.0
 50
0.0
 71
     0
 42
127.0
  3
txt
  4

  0
STYLE
  5
6B
330
3
100
AcDbSymbolTableRecord
100
AcDbTextStyleTableRecord
  2
SLDTEXTSTYLE0
 70
     0
 40
0.0
 41
0.75
 50
0.0
 71
     0
 42
127.0
  3
TXT
  4

  0
ENDTAB
  0
TABLE
  2
VIEW
  5
6
330
0
100
AcDbSymbolTable
 70
     0
  0
ENDTAB
  0
TABLE
  2
UCS
  5
7
330
0
100
AcDbSymbolTable
 70
     0
  0
ENDTAB
  0
TABLE
  2
APPID
  5
9
330
0
100
AcDbSymbolTable
 70
     2
  0
APPID
  5
12
330
9
100
AcDbSymbolTableRecord
100
AcDbRegAppTableRecord
  2
ACAD
 70
     0
  0
APPID
  5
3EC
330
9
100
AcDbSymbolTableRecord
100
AcDbRegAppTableRecord
  2
ACAD_NAV_VCDISPLAY
 70
     0
  0
ENDTAB
  0
TABLE
  2
DIMSTYLE
  5
A
330
0
100
AcDbSymbolTable
 70
     1
100
AcDbDimStyleTable
 71
     0
  0
DIMSTYLE
105
27
330
A
100
AcDbSymbolTableRecord
100
AcDbDimStyleTableRecord
  2
ISO-25
 70
     0
 41
2.5
 42
0.625
 43
3.75
 44
1.25
 73
     0
 74
     0
 77
     1
 78
     8
140
2.5
141
2.5
143
0.03937007874016
147
0.625
171
     3
172
     1
271
     2
272
     2
274
     3
278
    44
283
     0
284
     8
340
11
  0
ENDTAB
  0
TABLE
  2
BLOCK_RECORD
  5
1
330
0
100
AcDbSymbolTable
 70
     1
  0
BLOCK_RECORD
  5
1F
330
1
100
AcDbSymbolTableRecord
100
AcDbBlockTableRecord
  2
*Model_Space
340
22
 70
     0
280
     1
281
     0
  0
BLOCK_RECORD
  5
1B
330
1
100
AcDbSymbolTableRecord
100
AcDbBlockTableRecord
  2
*Paper_Space
340
1E
 70
     0
280
     1
281
     0
  0
BLOCK_RECORD
  5
23
330
1
100
AcDbSymbolTableRecord
100
AcDbBlockTableRecord
  2
*Paper_Space0
340
26
 70
     0
280
     1
281
     0
  0
ENDTAB
  0
ENDSEC
  0
SECTION
  2
BLOCKS
  0
BLOCK
  5
20
330
1F
100
AcDbEntity
  8
0
100
AcDbBlockBegin
  2
*Model_Space
 70
     0
 10
0.0
 20
0.0
 30
0.0
  3
*Model_Space
  1

  0
ENDBLK
  5
21
330
1F
100
AcDbEntity
  8
0
100
AcDbBlockEnd
  0
BLOCK
  5
1C
330
1B
100
AcDbEntity
 67
     1
  8
0
100
AcDbBlockBegin
  2
*Paper_Space
 70
     0
 10
0.0
 20
0.0
 30
0.0
  3
*Paper_Space
  1

  0
ENDBLK
  5
1D
330
1B
100
AcDbEntity
 67
     1
  8
0
100
AcDbBlockEnd
  0
BLOCK
  5
24
330
23
100
AcDbEntity
 67
     1
  8
0
100
AcDbBlockBegin
  2
*Paper_Space0
 70
     0
 10
0.0
 20
0.0
 30
0.0
  3
*Paper_Space0
  1

  0
ENDBLK
  5
25
330
23
100
AcDbEntity
 67
     1
  8
0
100
AcDbBlockEnd
  0
ENDSEC
  0
SECTION
  2
ENTITIES
  0
LINE
  5
6F
330
1F
100
AcDbEntity
  8
0
  6
Continuous
 62
     7
370
    25
100
AcDbLine
 10
3582.937481602618
 20
3425.852591009586
 30
0.0
 11
3583.37049430451
 21
3426.102591009586
 31
0.0
  0
LINE
  5
70
330
1F
100
AcDbEntity
  8
0
  6
Continuous
 62
     7
370
    25
100
AcDbLine
 10
3581.37049430451
 20
3429.566692624724
 30
0.0
 11
3580.937481602618
 21
3429.316692624724
 31
0.0
  0
LINE
  5
71
330
1F
100
AcDbEntity
  8
0
  6
Continuous
 62
     7
370
    25
100
AcDbLine
 10
3581.312481602618
 20
3428.667173571886
 30
0.0
 11
3580.879468900726
 21
3428.417173571886
 31
0.0
  0
LINE
  5
72
330
1F
100
AcDbEntity
  8
0
  6
Continuous
 62
     7
370
    25
100
AcDbLine
 10
3582.129468900725
 20
3426.252110062425
 30
0.0
 11
3582.562481602618
 21
3426.502110062425
 31
0.0
  0
LINE
  5
73
330
1F
100
AcDbEntity
  8
0
  6
Continuous
 62
     7
370
    25
100
AcDbLine
 10
3560.437481602618
 20
3464.823734179886
 30
0.0
 11
3560.87049430451
 21
3465.073734179886
 31
0.0
  0
LINE
  5
74
330
1F
100
AcDbEntity
  8
0
  6
Continuous
 62
     7
370
    25
100
AcDbLine
 10
3558.87049430451
 20
3468.537835795024
 30
0.0
 11
3558.437481602618
 21
3468.287835795024
 31
0.0
  0
LINE
  5
75
330
1F
100
AcDbEntity
  8
0
  6
Continuous
 62
     7
370
    25
100
AcDbLine
 10
3558.812481602618
 20
3467.638316742185
 30
0.0
 11
3558.379468900726
 21
3467.388316742186
 31
0.0
  0
LINE
  5
76
330
1F
100
AcDbEntity
  8
0
  6
Continuous
 62
     7
370
    25
100
AcDbLine
 10
3559.629468900726
 20
3465.223253232725
 30
0.0
 11
3560.062481602618
 21
3465.473253232725
 31
0.0
  0
LINE
  5
77
330
1F
100
AcDbEntity
  8
0
  6
Continuous
 62
     7
370
    25
100
AcDbLine
 10
3674.632025491874
 20
3447.784300315151
 30
0.0
 11
3679.632025491874
 21
3456.444554352995
 31
0.0
  0
LINE
  5
78
330
1F
100
AcDbEntity
  8
0
  6
Continuous
 62
     7
370
    25
100
AcDbLine
 10
3679.632025491877
 20
3504.195872451611
 30
0.0
 11
3674.632025491877
 21
3512.856126489455
 31
0.0
  0
LINE
  5
79
330
1F
100
AcDbEntity
  8
0
  6
Continuous
 62
     7
370
    25
100
AcDbLine
 10
3633.278170954286
 20
3536.731785538765
 30
0.0
 11
3623.278170954286
 21
3536.731785538765
 31
0.0
  0
ARC
  5
7A
330
1F
100
AcDbEntity
  8
0
  6
Continuous
 62
     7
370
    25
100
AcDbCircle
 10
4531.778170954281
 20
3407.320213402305
 30
0.0
 40
5.0
100
AcDbArc
 50
0.0
 51
90.0
  0
ARC
  5
7B
330
1F
100
AcDbEntity
  8
0
  6
Continuous
 62
     7
370
    25
100
AcDbCircle
 10
4461.778170954283
 20
3407.320213402305
 30
0.0
 40
5.0
100
AcDbArc
 50
90.0
 51
180.0
  0
LINE
  5
7C
330
1F
100
AcDbEntity
  8
0
  6
Continuous
 62
     7
370
    25
100
AcDbLine
 10
4456.778170954283
 20
3407.320213402305
 30
0.0
 11
4456.778170954283
 21
3398.320213402305
 31
0.0
  0
LINE
  5
7D
330
1F
100
AcDbEntity
  8
0
  6
Continuous
 62
     7
370
    25
100
AcDbLine
 10
4536.778170954282
 20
3398.320213402305
 30
0.0
 11
4536.778170954282
 21
3407.320213402305
 31
0.0
  0
ARC
  5
7E
330
1F
100
AcDbEntity
  8
0
  6
Continuous
 62
     7
370
    25
100
AcDbCircle
 10
4531.778170954281
 20
3398.320213402305
 30
0.0
 40
5.0
100
AcDbArc
 50
270.0000000000008
 51
0.0
  0
ARC
  5
7F
330
1F
100
AcDbEntity
  8
0
  6
Continuous
 62
     7
370
    25
100
AcDbCircle
 10
4461.778170954283
 20
3398.320213402305
 30
0.0
 40
5.0
100
AcDbArc
 50
180.0
 51
270.0000000000008
  0
ARC
  5
80
330
1F
100
AcDbEntity
  8
0
  6
Continuous
 62
     7
370
    25
100
AcDbCircle
 10
4461.778170954283
 20
3440.320213402305
 30
0.0
 40
5.0
100
AcDbArc
 50
90.0
 51
180.0
  0
ARC
  5
81
330
1F
100
AcDbEntity
  8
0
  6
Continuous
 62
     7
370
    25
100
AcDbCircle
 10
4531.778170954281
 20
3440.320213402305
 30
0.0
 40
5.0
100
AcDbArc
 50
0.0
 51
90.0
  0
LINE
  5
82
330
1F
100
AcDbEntity
  8
0
  6
Continuous
 62
     7
370
    25
100
AcDbLine
 10
4536.778170954282
 20
3431.320213402305
 30
0.0
 11
4536.778170954282
 21
3440.320213402305
 31
0.0
  0
LINE
  5
83
330
1F
100
AcDbEntity
  8
0
  6
Continuous
 62
     7
370
    25
100
AcDbLine
 10
4456.778170954283
 20
3440.320213402305
 30
0.0
 11
4456.778170954283
 21
3431.320213402305
 31
0.0
  0
ARC
  5
84
330
1F
100
AcDbEntity
  8
0
  6
Continuous
 62
     7
370
    25
100
AcDbCircle
 10
4461.778170954283
 20
3431.320213402305
 30
0.0
 40
5.0
100
AcDbArc
 50
180.0
 51
270.0000000000008
  0
ARC
  5
85
330
1F
100
AcDbEntity
  8
0
  6
Continuous
 62
     7
370
    25
100
AcDbCircle
 10
4531.778170954281
 20
3431.320213402305
 30
0.0
 40
5.0
100
AcDbArc
 50
270.0000000000008
 51
0.0
  0
LINE
  5
86
330
1F
100
AcDbEntity
  8
0
  6
Continuous
 62
     7
370
    25
100
AcDbLine
 10
4504.278170954283
 20
3412.320213402305
 30
0.0
 11
4504.278170954283
 21
3413.320213402304
 31
0.0
  0
LINE
  5
87
330
1F
100
AcDbEntity
  8
0
  6
Continuous
 62
     7
370
    25
100
AcDbLine
 10
4504.278170954283
 20
3425.320213402305
 30
0.0
 11
4504.278170954283
 21
3426.320213402305
 31
0.0
  0
LINE
  5
88
330
1F
100
AcDbEntity
  8
0
  6
Continuous
 62
     7
370
    25
100
AcDbLine
 10
4489.278170954283
 20
3426.320213402305
 30
0.0
 11
4489.278170954283
 21
3425.320213402305
 31
0.0
  0
LINE
  5
89
330
1F
100
AcDbEntity
  8
0
  6
Continuous
 62
     7
370
    25
100
AcDbLine
 10
4489.278170954283
 20
3413.320213402304
 30
0.0
 11
4489.278170954283
 21
3412.320213402305
 31
0.0
  0
LINE
  5
8A
330
1F
100
AcDbEntity
  8
0
  6
Continuous
 62
     7
370
    25
100
AcDbLine
 10
3573.356747524878
 20
3486.320213402306
 30
0.0
 11
3572.851981296325
 21
3486.320213402306
 31
0.0
  0
LINE
  5
8B
330
1F
100
AcDbEntity
  8
0
  6
Continuous
 62
     7
370
    25
100
AcDbLine
 10
3573.356747524878
 20
3478.320213402305
 30
0.0
 11
3573.996179887239
 21
3478.320213402305
 31
0.0
  0
LINE
  5
8C
330
1F
100
AcDbEntity
  8
0
  6
Continuous
 62
     7
370
    25
100
AcDbLine
 10
3573.99618028388
 20
3482.320213402305
 30
0.0
 11
3573.356747524878
 21
3482.320213402305
 31
0.0
  0
ARC
  5
8D
330
1F
100
AcDbEntity
  8
0
  6
Continuous
 62
     7
370
    25
100
AcDbCircle
 10
4773.494347790516
 20
3481.451346425726
 30
0.0
 40
5.000000000000057
100
AcDbArc
 50
103.151110742702
 51
158.0514785473061
  0
ARC
  5
8E
330
1F
100
AcDbEntity
  8
0
  6
Continuous
 62
     7
370
    25
100
AcDbCircle
 10
4773.494347790516
 20
3479.189080378883
 30
0.0
 40
5.000000000000057
100
AcDbArc
 50
201.9485214526947
 51
256.8488892572988
  0
LINE
  5
8F
330
1F
100
AcDbEntity
  8
0
  6
Continuous
 62
     7
370
    25
100
AcDbLine
 10
4773.356747524878
 20
3486.320213402305
 30
0.0
 11
4772.356747524878
 21
3486.320213402305
 31
0.0
  0
LINE
  5
90
330
1F
100
AcDbEntity
  8
0
  6
Continuous
 62
     7
370
    25
100
AcDbLine
 10
4772.356747524878
 20
3474.320213402305
 30
0.0
 11
4773.356747524878
 21
3474.320213402305
 31
0.0
  0
LINE
  5
91
330
1F
100
AcDbEntity
  8
0
  6
Continuous
 62
     7
370
    25
100
AcDbLine
 10
4773.356747524878
 20
3478.320213402305
 30
0.0
 11
4773.996179887239
 21
3478.320213402305
 31
0.0
  0
LINE
  5
92
330
1F
100
AcDbEntity
  8
0
  6
Continuous
 62
     7
370
    25
100
AcDbLine
 10
4773.99618028388
 20
3482.320213402305
 30
0.0
 11
4773.356747524878
 21
3482.320213402305
 31
0.0
  0
LINE
  5
93
330
1F
100
AcDbEntity
  8
0
  6
Continuous
 62
     7
370
    25
100
AcDbLine
 10
3631.348591922645
 20
3477.077982520796
 30
0.0
 11
3631.362763096346
 21
3477.063018378266
 31
0.0
  0
LINE
  5
94
330
1F
100
AcDbEntity
  8
0
  6
Continuous
 62
     7
370
    25
100
AcDbLine
 10
3639.111332865388
 20
3475.563813107096
 30
0.0
 11
3639.061264196666
 21
3475.585796220857
 31
0.0
  0
LINE
  5
95
330
1F
100
AcDbEntity
  8
0
  6
Continuous
 62
     7
370
    25
100
AcDbLine
 10
3636.649314832315
 20
3491.906160263376
 30
0.0
 11
3636.610856284637
 21
3491.852932329864
 31
0.0
  0
LINE
  5
96
330
1F
100
AcDbEntity
  8
0
  6
Continuous
 62
     7
370
    25
100
AcDbLine
 10
3642.461651671175
 20
3481.453423952862
 30
0.0
 11
3642.527113889868
 21
3481.458654155403
 31
0.0
  0
LINE
  5
97
330
1F
100
AcDbEntity
  8
0
  6
Continuous
 62
     7
370
    25
100
AcDbLine
 10
3616.435350904936
 20
3478.543036680817
 30
0.0
 11
3616.489758960292
 21
3478.55120135182
 31
0.0
  0
LINE
  5
98
330
1F
100
AcDbEntity
  8
0
  6
Continuous
 62
     7
370
    25
100
AcDbLine
 10
3611.097968660845
 20
3477.419839990307
 30
0.0
 11
3611.018197348992
 21
3477.406372943297
 31
0.0
  0
LINE
  5
99
330
1F
100
AcDbEntity
  8
0
  6
Continuous
 62
     7
370
    25
100
AcDbLine
 10
3613.80143893769
 20
3490.788877140746
 30
0.0
 11
3613.867947660584
 21
3490.740782207798
 31
0.0
  0
LINE
  5
9A
330
1F
100
AcDbEntity
  8
0
  6
Continuous
 62
     7
370
    25
100
AcDbLine
 10
4831.348591922646
 20
3477.077982520796
 30
0.0
 11
4831.362763096346
 21
3477.063018378265
 31
0.0
  0
LINE
  5
9B
330
1F
100
AcDbEntity
  8
0
  6
Continuous
 62
     7
370
    25
100
AcDbLine
 10
4839.111332865389
 20
3475.563813107096
 30
0.0
 11
4839.061264196665
 21
3475.585796220857
 31
0.0
  0
LINE
  5
9C
330
1F
100
AcDbEntity
  8
0
  6
Continuous
 62
     7
370
    25
100
AcDbLine
 10
4836.649314832315
 20
3491.906160263376
 30
0.0
 11
4836.610856284636
 21
3491.852932329863
 31
0.0
  0
LINE
  5
9D
330
1F
100
AcDbEntity
  8
0
  6
Continuous
 62
     7
370
    25
100
AcDbLine
 10
4842.461651671174
 20
3481.453423952861
 30
0.0
 11
4842.527113889868
 21
3481.458654155402
 31
0.0
  0
LINE
  5
9E
330
1F
100
AcDbEntity
  8
0
  6
Continuous
 62
     7
370
    25
100
AcDbLine
 10
4816.435350904936
 20
3478.543036680817
 30
0.0
 11
4816.489758960292
 21
3478.551201351819
 31
0.0
  0
LINE
  5
9F
330
1F
100
AcDbEntity
  8
0
  6
Continuous
 62
     7
370
    25
100
AcDbLine
 10
4811.097968660845
 20
3477.419839990307
 30
0.0
 11
4811.018197348992
 21
3477.406372943297
 31
0.0
  0
LINE
  5
A0
330
1F
100
AcDbEntity
  8
0
  6
Continuous
 62
     7
370
    25
100
AcDbLine
 10
4813.80143893769
 20
3490.788877140746
 30
0.0
 11
4813.867947660583
 21
3490.740782207798
 31
0.0
  0
CIRCLE
  5
A1
330
1F
100
AcDbEntity
  8
0
  6
Continuous
 62
     7
370
    25
100
AcDbCircle
 10
4828.278170954282
 20
3480.320213402303
 30
0.0
 40
53.63504806936089
  0
CIRCLE
  5
A2
330
1F
100
AcDbEntity
  8
0
  6
Continuous
 62
     7
370
    25
100
AcDbCircle
 10
3628.278170954283
 20
3480.320213402303
 30
0.0
 40
53.63504806936044
  0
LINE
  5
A3
330
1F
100
AcDbEntity
  8
0
  6
Continuous
 62
     7
370
    25
100
AcDbLine
 10
3583.958209964966
 20
3510.52715696348
 30
0.0
 11
3583.512799149925
 21
3510.784315017444
 31
0.0
  0
LINE
  5
A4
330
1F
100
AcDbEntity
  8
0
  6
Continuous
 62
     7
370
    25
100
AcDbLine
 10
3579.512799149925
 20
3503.856111787168
 30
0.0
 11
3579.958209964966
 21
3503.598953733205
 31
0.0
  0
ARC
  5
A5
330
1F
100
AcDbEntity
  8
0
  6
Continuous
 62
     7
370
    25
100
AcDbCircle
 10
4823.278170954283
 20
3412.025213402304
 30
0.0
 40
4.704999999999927
100
AcDbArc
 50
231.9487879248664
 51
270.0000000000008
  0
ARC
  5
A6
330
1F
100
AcDbEntity
  8
0
  6
Continuous
 62
     7
370
    25
100
AcDbCircle
 10
4833.278170954283
 20
3412.025213402304
 30
0.0
 40
4.705000000000278
100
AcDbArc
 50
270.0000000000008
 51
308.051212075144
  0
LINE
  5
A7
330
1F
100
AcDbEntity
  8
0
  6
Continuous
 62
     7
370
    25
100
AcDbLine
 10
4820.378170954284
 20
3413.320213402304
 30
0.0
 11
4820.378170954284
 21
3408.320213402304
 31
0.0
  0
LINE
  5
A8
330
1F
100
AcDbEntity
  8
0
  6
Continuous
 62
     7
370
    25
100
AcDbLine
 10
4836.178170954283
 20
3408.320213402304
 30
0.0
 11
4836.178170954283
 21
3413.320213402304
 31
0.0
  0
LINE
  5
A9
330
1F
100
AcDbEntity
  8
0
  6
Continuous
 62
     7
370
    25
100
AcDbLine
 10
4824.278170954283
 20
3426.834529510231
 30
0.0
 11
4824.278170954283
 21
3425.320213402305
 31
0.0
  0
LINE
  5
AA
330
1F
100
AcDbEntity
  8
0
  6
Continuous
 62
     7
370
    25
100
AcDbLine
 10
4832.278170954283
 20
3425.320213402305
 30
0.0
 11
4832.278170954283
 21
3426.834529510231
 31
0.0
  0
ARC
  5
AB
330
1F
100
AcDbEntity
  8
0
  6
Continuous
 62
     7
370
    25
100
AcDbCircle
 10
3623.278170954283
 20
3412.025213402304
 30
0.0
 40
4.704999999999718
100
AcDbArc
 50
231.9487879248664
 51
270.0000000000008
  0
ARC
  5
AC
330
1F
100
AcDbEntity
  8
0
  6
Continuous
 62
     7
370
    25
100
AcDbCircle
 10
3633.278170954283
 20
3412.025213402304
 30
0.0
 40
4.704999999999998
100
AcDbArc
 50
270.0000000000008
 51
308.0512120751396
  0
LINE
  5
AD
330
1F
100
AcDbEntity
  8
0
  6
Continuous
 62
     7
370
    25
100
AcDbLine
 10
3620.378170954283
 20
3413.320213402303
 30
0.0
 11
3620.378170954283
 21
3408.320213402304
 31
0.0
  0
LINE
  5
AE
330
1F
100
AcDbEntity
  8
0
  6
Continuous
 62
     7
370
    25
100
AcDbLine
 10
3636.178170954283
 20
3408.320213402304
 30
0.0
 11
3636.178170954283
 21
3413.320213402303
 31
0.0
  0
LINE
  5
AF
330
1F
100
AcDbEntity
  8
0
  6
Continuous
 62
     7
370
    25
100
AcDbLine
 10
3624.278170954283
 20
3426.834529510231
 30
0.0
 11
3624.278170954283
 21
3425.320213402305
 31
0.0
  0
LINE
  5
B0
330
1F
100
AcDbEntity
  8
0
  6
Continuous
 62
     7
370
    25
100
AcDbLine
 10
3632.278170954283
 20
3425.320213402305
 30
0.0
 11
3632.278170954283
 21
3426.834529510231
 31
0.0
  0
LINE
  5
B1
330
1F
100
AcDbEntity
  8
0
  6
Continuous
 62
     7
370
    25
100
AcDbLine
 10
3579.958209964964
 20
3457.041473071406
 30
0.0
 11
3578.772908087944
 21
3456.357138713638
 31
0.0
  0
LINE
  5
B2
330
1F
100
AcDbEntity
  8
0
  6
Continuous
 62
     7
370
    25
100
AcDbLine
 10
3582.772908087945
 20
3449.428935483363
 30
0.0
 11
3583.958209964964
 21
3450.113269841131
 31
0.0
  0
LINE
  5
B3
330
1F
100
AcDbEntity
  8
0
  6
Continuous
 62
     7
370
    25
100
AcDbLine
 10
3582.937481602618
 20
3425.852591009586
 30
0.0
 11
3580.937481602618
 21
3429.316692624724
 31
0.0
  0
LINE
  5
B4
330
1F
100
AcDbEntity
  8
0
  6
Continuous
 62
     7
370
    25
100
AcDbLine
 10
3582.129468900725
 20
3426.252110062425
 30
0.0
 11
3580.879468900726
 21
3428.417173571886
 31
0.0
  0
LINE
  5
B5
330
1F
100
AcDbEntity
  8
0
  6
Continuous
 62
     7
370
    25
100
AcDbLine
 10
3560.437481602618
 20
3464.823734179886
 30
0.0
 11
3558.437481602618
 21
3468.287835795024
 31
0.0
  0
LINE
  5
B6
330
1F
100
AcDbEntity
  8
0
  6
Continuous
 62
     7
370
    25
100
AcDbLine
 10
3559.629468900726
 20
3465.223253232725
 30
0.0
 11
3558.379468900726
 21
3467.388316742186
 31
0.0
  0
LINE
  5
B7
330
1F
100
AcDbEntity
  8
0
  6
Continuous
 62
     7
370
    25
100
AcDbLine
 10
3559.87049430451
 20
3466.805784987454
 30
0.0
 11
3560.736519708295
 21
3467.305784987455
 31
0.0
  0
LINE
  5
B8
330
1F
100
AcDbEntity
  8
0
  6
Continuous
 62
     7
370
    25
100
AcDbLine
 10
3557.37049430451
 20
3471.135912006377
 30
0.0
 11
3558.236519708295
 21
3471.635912006377
 31
0.0
  0
LINE
  5
B9
330
1F
100
AcDbEntity
  8
0
  6
Continuous
 62
     7
370
    25
100
AcDbLine
 10
3559.87049430451
 20
3466.805784987454
 30
0.0
 11
3557.37049430451
 21
3471.135912006377
 31
0.0
  0
LINE
  5
BA
330
1F
100
AcDbEntity
  8
0
  6
Continuous
 62
     7
370
    25
100
AcDbLine
 10
3584.87049430451
 20
3423.504514798233
 30
0.0
 11
3585.736519708295
 21
3424.004514798233
 31
0.0
  0
LINE
  5
BB
330
1F
100
AcDbEntity
  8
0
  6
Continuous
 62
     7
370
    25
100
AcDbLine
 10
3582.37049430451
 20
3427.834641817155
 30
0.0
 11
3583.236519708294
 21
3428.334641817155
 31
0.0
  0
LINE
  5
BC
330
1F
100
AcDbEntity
  8
0
  6
Continuous
 62
     7
370
    25
100
AcDbLine
 10
3584.87049430451
 20
3423.504514798233
 30
0.0
 11
3582.37049430451
 21
3427.834641817155
 31
0.0
  0
LINE
  5
BD
330
1F
100
AcDbEntity
  8
0
  6
Continuous
 62
     7
370
    25
100
AcDbLine
 10
3572.149014691614
 20
3447.538763835222
 30
0.0
 11
3571.824024691656
 21
3448.1016630271
 31
0.0
  0
LINE
  5
BE
330
1F
100
AcDbEntity
  8
0
  6
Continuous
 62
     7
370
    25
100
AcDbLine
 10
3582.37049430451
 20
3427.834641817155
 30
0.0
 11
3559.87049430451
 21
3466.805784987454
 31
0.0
  0
LINE
  5
BF
330
1F
100
AcDbEntity
  8
0
  6
Continuous
 62
     7
370
    25
100
AcDbLine
 10
3674.25475238958
 20
3448.002119042318
 30
0.0
 11
3679.25475238958
 21
3456.662373080162
 31
0.0
  0
LINE
  5
C0
330
1F
100
AcDbEntity
  8
0
  6
Continuous
 62
     7
370
    25
100
AcDbLine
 10
3674.25475238958
 20
3448.002119042318
 30
0.0
 11
3672.025211789907
 21
3449.289344907708
 31
0.0
  0
LINE
  5
C1
330
1F
100
AcDbEntity
  8
0
  6
Continuous
 62
     7
370
    25
100
AcDbLine
 10
3679.25475238958
 20
3456.662373080162
 30
0.0
 11
3677.025211789907
 21
3457.949598945553
 31
0.0
  0
LINE
  5
C2
330
1F
100
AcDbEntity
  8
0
  6
Continuous
 62
     7
370
    25
100
AcDbLine
 10
3674.632025491874
 20
3447.784300315151
 30
0.0
 11
3674.25475238958
 21
3448.002119042318
 31
0.0
  0
LINE
  5
C3
330
1F
100
AcDbEntity
  8
0
  6
Continuous
 62
     7
370
    25
100
AcDbLine
 10
3679.25475238958
 20
3456.662373080162
 30
0.0
 11
3679.632025491874
 21
3456.444554352995
 31
0.0
  0
LINE
  5
C4
330
1F
100
AcDbEntity
  8
0
  6
Continuous
 62
     7
370
    25
100
AcDbLine
 10
3583.344006051755
 20
3448.603958508126
 30
0.0
 11
3584.531130118654
 21
3449.289344907713
 31
0.0
  0
LINE
  5
C5
330
1F
100
AcDbEntity
  8
0
  6
Continuous
 62
     7
370
    25
100
AcDbLine
 10
3578.344006051756
 20
3457.264212545972
 30
0.0
 11
3579.531130118655
 21
3457.949598945557
 31
0.0
  0
LINE
  5
C6
330
1F
100
AcDbEntity
  8
0
  6
Continuous
 62
     7
370
    25
100
AcDbLine
 10
3679.254752389583
 20
3503.978053724444
 30
0.0
 11
3674.254752389583
 21
3512.638307762288
 31
0.0
  0
LINE
  5
C7
330
1F
100
AcDbEntity
  8
0
  6
Continuous
 62
     7
370
    25
100
AcDbLine
 10
3679.254752389583
 20
3503.978053724444
 30
0.0
 11
3677.025211789909
 21
3502.690827859052
 31
0.0
  0
LINE
  5
C8
330
1F
100
AcDbEntity
  8
0
  6
Continuous
 62
     7
370
    25
100
AcDbLine
 10
3674.254752389583
 20
3512.638307762288
 30
0.0
 11
3672.025211789908
 21
3511.351081896896
 31
0.0
  0
LINE
  5
C9
330
1F
100
AcDbEntity
  8
0
  6
Continuous
 62
     7
370
    25
100
AcDbLine
 10
3679.632025491877
 20
3504.195872451611
 30
0.0
 11
3679.254752389583
 21
3503.978053724444
 31
0.0
  0
LINE
  5
CA
330
1F
100
AcDbEntity
  8
0
  6
Continuous
 62
     7
370
    25
100
AcDbLine
 10
3674.254752389583
 20
3512.638307762288
 30
0.0
 11
3674.632025491877
 21
3512.856126489455
 31
0.0
  0
LINE
  5
CB
330
1F
100
AcDbEntity
  8
0
  6
Continuous
 62
     7
370
    25
100
AcDbLine
 10
3633.278170954286
 20
3536.296148084431
 30
0.0
 11
3623.278170954286
 21
3536.296148084431
 31
0.0
  0
LINE
  5
CC
330
1F
100
AcDbEntity
  8
0
  6
Continuous
 62
     7
370
    25
100
AcDbLine
 10
3623.278170954286
 20
3536.296148084431
 30
0.0
 11
3623.278170954286
 21
3533.721696353647
 31
0.0
  0
LINE
  5
CD
330
1F
100
AcDbEntity
  8
0
  6
Continuous
 62
     7
370
    25
100
AcDbLine
 10
3633.278170954286
 20
3536.296148084431
 30
0.0
 11
3633.278170954286
 21
3533.721696353647
 31
0.0
  0
LINE
  5
CE
330
1F
100
AcDbEntity
  8
0
  6
Continuous
 62
     7
370
    25
100
AcDbLine
 10
3623.278170954286
 20
3536.296148084431
 30
0.0
 11
3623.278170954286
 21
3536.731785538765
 31
0.0
  0
LINE
  5
CF
330
1F
100
AcDbEntity
  8
0
  6
Continuous
 62
     7
370
    25
100
AcDbLine
 10
3633.278170954286
 20
3536.731785538765
 30
0.0
 11
3633.278170954286
 21
3536.296148084431
 31
0.0
  0
LINE
  5
D0
330
1F
100
AcDbEntity
  8
0
  6
Continuous
 62
     7
370
    25
100
AcDbLine
 10
3574.583468374155
 20
3495.318260436221
 30
0.0
 11
3588.442129925694
 21
3519.322166368388
 31
0.0
  0
LINE
  5
D1
330
1F
100
AcDbEntity
  8
0
  6
Continuous
 62
     7
370
    25
100
AcDbLine
 10
4128.140737246448
 20
3316.203691390653
 30
0.0
 11
4125.712288911203
 21
3314.642931314157
 31
0.0
  0
LINE
  5
D2
330
1F
100
AcDbEntity
  8
0
  6
Continuous
 62
     7
370
    25
100
AcDbLine
 10
4125.712288911203
 20
3314.642931314157
 30
0.0
 11
4125.849722619038
 21
3311.759453325809
 31
0.0
  0
LINE
  5
D3
330
1F
100
AcDbEntity
  8
0
  6
Continuous
 62
     7
370
    25
100
AcDbLine
 10
4128.415604662118
 20
3310.436735413958
 30
0.0
 11
4130.844052997363
 21
3311.997495490453
 31
0.0
  0
LINE
  5
D4
330
1F
100
AcDbEntity
  8
0
  6
Continuous
 62
     7
370
    25
100
AcDbLine
 10
4130.844052997363
 20
3311.997495490453
 30
0.0
 11
4130.706619289527
 21
3314.8809734788
 31
0.0
  0
LINE
  5
D5
330
1F
100
AcDbEntity
  8
0
  6
Continuous
 62
     7
370
    25
100
AcDbLine
 10
4130.706619289527
 20
3314.8809734788
 30
0.0
 11
4128.140737246448
 21
3316.203691390653
 31
0.0
  0
CIRCLE
  5
D6
330
1F
100
AcDbEntity
  8
0
  6
Continuous
 62
     7
370
    25
100
AcDbCircle
 10
4128.278170954283
 20
3313.320213402305
 30
0.0
 40
8.000000000000465
  0
LINE
  5
D7
330
1F
100
AcDbEntity
  8
0
  6
Continuous
 62
     7
370
    25
100
AcDbLine
 10
4125.849722619038
 20
3311.759453325809
 30
0.0
 11
4128.415604662118
 21
3310.436735413958
 31
0.0
  0
LINE
  5
D8
330
1F
100
AcDbEntity
  8
0
  6
Continuous
 62
     7
370
    25
100
AcDbLine
 10
3492.273605562378
 20
3558.495540245472
 30
0.0
 11
3492.574069262996
 21
3555.624468163837
 31
0.0
  0
LINE
  5
D9
330
1F
100
AcDbEntity
  8
0
  6
Continuous
 62
     7
370
    25
100
AcDbLine
 10
3492.574069262996
 20
3555.624468163837
 30
0.0
 11
3495.210722472098
 21
3554.449141320669
 31
0.0
  0
LINE
  5
DA
330
1F
100
AcDbEntity
  8
0
  6
Continuous
 62
     7
370
    25
100
AcDbLine
 10
3495.210722472098
 20
3554.449141320669
 30
0.0
 11
3497.54691198058
 21
3556.144886559137
 31
0.0
  0
LINE
  5
DB
330
1F
100
AcDbEntity
  8
0
  6
Continuous
 62
     7
370
    25
100
AcDbLine
 10
3497.54691198058
 20
3556.144886559137
 30
0.0
 11
3497.246448279963
 21
3559.015958640773
 31
0.0
  0
CIRCLE
  5
DC
330
1F
100
AcDbEntity
  8
0
  6
Continuous
 62
     7
370
    25
100
AcDbCircle
 10
3494.910258771479
 20
3557.320213402304
 30
0.0
 40
7.999999999999778
  0
LINE
  5
DD
330
1F
100
AcDbEntity
  8
0
  6
Continuous
 62
     7
370
    25
100
AcDbLine
 10
3497.246448279963
 20
3559.015958640773
 30
0.0
 11
3494.609795070861
 21
3560.19128548394
 31
0.0
  0
LINE
  5
DE
330
1F
100
AcDbEntity
  8
0
  6
Continuous
 62
     7
370
    25
100
AcDbLine
 10
3494.609795070861
 20
3560.19128548394
 30
0.0
 11
3492.273605562378
 21
3558.495540245472
 31
0.0
  0
LINE
  5
DF
330
1F
100
AcDbEntity
  8
0
  6
Continuous
 62
     7
370
    25
100
AcDbLine
 10
3626.548438329597
 20
3311.009075504985
 30
0.0
 11
3629.414808772668
 21
3310.666652058912
 31
0.0
  0
LINE
  5
E0
330
1F
100
AcDbEntity
  8
0
  6
Continuous
 62
     7
370
    25
100
AcDbLine
 10
3629.414808772668
 20
3310.666652058912
 30
0.0
 11
3631.144541397354
 21
3312.977789956232
 31
0.0
  0
LINE
  5
E1
330
1F
100
AcDbEntity
  8
0
  6
Continuous
 62
     7
370
    25
100
AcDbLine
 10
3631.144541397354
 20
3312.977789956232
 30
0.0
 11
3630.007903578969
 21
3315.631351299625
 31
0.0
  0
LINE
  5
E2
330
1F
100
AcDbEntity
  8
0
  6
Continuous
 62
     7
370
    25
100
AcDbLine
 10
3625.411800511211
 20
3313.662636848378
 30
0.0
 11
3626.548438329597
 21
3311.009075504985
 31
0.0
  0
LINE
  5
E3
330
1F
100
AcDbEntity
  8
0
  6
Continuous
 62
     7
370
    25
100
AcDbLine
 10
3627.141533135898
 20
3315.973774745698
 30
0.0
 11
3625.411800511211
 21
3313.662636848378
 31
0.0
  0
CIRCLE
  5
E4
330
1F
100
AcDbEntity
  8
0
  6
Continuous
 62
     7
370
    25
100
AcDbCircle
 10
3628.278170954283
 20
3313.320213402305
 30
0.0
 40
8.000000000000149
  0
LINE
  5
E5
330
1F
100
AcDbEntity
  8
0
  6
Continuous
 62
     7
370
    25
100
AcDbLine
 10
3630.007903578969
 20
3315.631351299625
 30
0.0
 11
3627.141533135898
 21
3315.973774745698
 31
0.0
  0
LINE
  5
E6
330
1F
100
AcDbEntity
  8
0
  6
Continuous
 62
     7
370
    25
100
AcDbLine
 10
3635.778170954284
 20
3426.820213402305
 30
0.0
 11
3635.778170954284
 21
3427.212131329961
 31
0.0
  0
ARC
  5
E7
330
1F
100
AcDbEntity
  8
0
  6
Continuous
 62
     7
370
    25
100
AcDbCircle
 10
3635.278170954284
 20
3426.820213402305
 30
0.0
 40
0.5000000000004548
100
AcDbArc
 50
270.0000000000008
 51
0.0
  0
LINE
  5
E8
330
1F
100
AcDbEntity
  8
0
  6
Continuous
 62
     7
370
    25
100
AcDbLine
 10
3620.778170954285
 20
3427.212131329961
 30
0.0
 11
3620.778170954285
 21
3426.820213402305
 31
0.0
  0
ARC
  5
E9
330
1F
100
AcDbEntity
  8
0
  6
Continuous
 62
     7
370
    25
100
AcDbCircle
 10
3621.278170954285
 20
3426.820213402305
 30
0.0
 40
0.5
100
AcDbArc
 50
180.0
 51
270.0000000000008
  0
LINE
  5
EA
330
1F
100
AcDbEntity
  8
0
  6
Continuous
 62
     7
370
    25
100
AcDbLine
 10
3621.278170954285
 20
3426.320213402306
 30
0.0
 11
3624.278170954283
 21
3426.320213402306
 31
0.0
  0
LINE
  5
EB
330
1F
100
AcDbEntity
  8
0
  6
Continuous
 62
     7
370
    25
100
AcDbLine
 10
3632.278170954283
 20
3426.320213402306
 30
0.0
 11
3635.278170954284
 21
3426.320213402306
 31
0.0
  0
ARC
  5
EC
330
1F
100
AcDbEntity
  8
0
  6
Continuous
 62
     7
370
    25
100
AcDbCircle
 10
3823.278170954283
 20
3390.320213402306
 30
0.0
 40
15.0
100
AcDbArc
 50
90.0
 51
180.0
  0
LINE
  5
ED
330
1F
100
AcDbEntity
  8
0
  6
Continuous
 62
     7
370
    25
100
AcDbLine
 10
3823.278170954283
 20
3400.320213402306
 30
0.0
 11
3823.278170954283
 21
3405.320213402305
 31
0.0
  0
ARC
  5
EE
330
1F
100
AcDbEntity
  8
0
  6
Continuous
 62
     7
370
    25
100
AcDbCircle
 10
3823.278170954283
 20
3390.320213402306
 30
0.0
 40
10.0
100
AcDbArc
 50
90.0
 51
180.0
  0
LINE
  5
EF
330
1F
100
AcDbEntity
  8
0
  6
Continuous
 62
     7
370
    25
100
AcDbLine
 10
3808.278170954283
 20
3390.320213402306
 30
0.0
 11
3813.278170954283
 21
3390.320213402306
 31
0.0
  0
ARC
  5
F0
330
1F
100
AcDbEntity
  8
0
  6
Continuous
 62
     7
370
    25
100
AcDbCircle
 10
4306.278170954283
 20
3456.707351414054
 30
0.0
 40
50.0
100
AcDbArc
 50
0.0
 51
82.19359917076461
  0
LINE
  5
F1
330
1F
100
AcDbEntity
  8
0
  6
Continuous
 62
     7
370
    25
100
AcDbLine
 10
4356.278170954283
 20
3456.707351414054
 30
0.0
 11
4351.278170954283
 21
3456.707351414054
 31
0.0
  0
ARC
  5
F2
330
1F
100
AcDbEntity
  8
0
  6
Continuous
 62
     7
370
    25
100
AcDbCircle
 10
4306.278170954283
 20
3456.707351414054
 30
0.0
 40
45.00000000000021
100
AcDbArc
 50
0.0
 51
82.19359917076435
  0
LINE
  5
F3
330
1F
100
AcDbEntity
  8
0
  6
Continuous
 62
     7
370
    25
100
AcDbLine
 10
4313.069483630391
 20
3506.243985051548
 30
0.0
 11
4312.39035236278
 21
3501.290321687799
 31
0.0
  0
CIRCLE
  5
F4
330
1F
100
AcDbEntity
  8
0
  6
Continuous
 62
     7
370
    25
100
AcDbCircle
 10
4128.278170954283
 20
3313.320213402305
 30
0.0
 40
8.65000000000009
  0
CIRCLE
  5
F5
330
1F
100
AcDbEntity
  8
0
  6
Continuous
 62
     7
370
    25
100
AcDbCircle
 10
3628.278170954283
 20
3313.320213402305
 30
0.0
 40
8.65000000000009
  0
CIRCLE
  5
F6
330
1F
100
AcDbEntity
  8
0
  6
Continuous
 62
     7
370
    25
100
AcDbCircle
 10
3494.910258771479
 20
3557.320213402304
 30
0.0
 40
8.65000000000009
  0
LWPOLYLINE
  5
F7
330
1F
100
AcDbEntity
  8
0
  6
Continuous
 62
     7
370
    25
100
AcDbPolyline
 90
        3
 70
   128
 43
0.0
 10
4351.278170954283
 20
3412.937450872007
 10
4350.254779976038
 20
3413.23259450004
 10
4350.038908770755
 20
3413.320213402304
  0
LINE
  5
F8
330
1F
100
AcDbEntity
  8
0
  6
Continuous
 62
     7
370
    25
100
AcDbLine
 10
4351.278170954283
 20
3356.393259977243
 30
0.0
 11
4351.278170954283
 21
3412.937450872007
 31
0.0
  0
ARC
  5
F9
330
1F
100
AcDbEntity
  8
0
  6
Continuous
 62
     7
370
    25
100
AcDbCircle
 10
4306.278170954283
 20
3356.393259977243
 30
0.0
 40
45.0
100
AcDbArc
 50
281.1964645256573
 51
0.0
  0
LINE
  5
FA
330
1F
100
AcDbEntity
  8
0
  6
Continuous
 62
     7
370
    25
100
AcDbLine
 10
3827.772189392846
 20
3215.804111734883
 30
0.0
 11
4315.015992870356
 21
3312.249738729351
 31
0.0
  0
ARC
  5
FB
330
1F
100
AcDbEntity
  8
0
  6
Continuous
 62
     7
370
    25
100
AcDbCircle
 10
3819.034367476773
 20
3259.947632982774
 30
0.0
 40
45.00000000000007
100
AcDbArc
 50
246.1964645256571
 51
281.1964645256573
  0
LINE
  5
FC
330
1F
100
AcDbEntity
  8
0
  6
Continuous
 62
     7
370
    25
100
AcDbLine
 10
3488.116092034115
 20
3356.7405407478
 30
0.0
 11
3800.872288556605
 21
3218.775568554358
 31
0.0
  0
ARC
  5
FD
330
1F
100
AcDbEntity
  8
0
  6
Continuous
 62
     7
370
    25
100
AcDbCircle
 10
3506.278170954283
 20
3397.912605176216
 30
0.0
 40
45.0
100
AcDbArc
 50
180.0
 51
246.1964645256577
  0
LINE
  5
FE
330
1F
100
AcDbEntity
  8
0
  6
Continuous
 62
     7
370
    25
100
AcDbLine
 10
3461.278170954283
 20
3535.320213402305
 30
0.0
 11
3461.278170954283
 21
3397.912605176216
 31
0.0
  0
ARC
  5
FF
330
1F
100
AcDbEntity
  8
0
  6
Continuous
 62
     7
370
    25
100
AcDbCircle
 10
3506.278170954283
 20
3535.320213402305
 30
0.0
 40
45.0
100
AcDbArc
 50
90.0
 51
180.0
  0
LINE
  5
100
330
1F
100
AcDbEntity
  8
0
  6
Continuous
 62
     7
370
    25
100
AcDbLine
 10
3732.866707039981
 20
3580.320213402305
 30
0.0
 11
3506.278170954283
 21
3580.320213402305
 31
0.0
  0
ARC
  5
101
330
1F
100
AcDbEntity
  8
0
  6
Continuous
 62
     7
370
    25
100
AcDbCircle
 10
3732.866707039981
 20
3535.320213402305
 30
0.0
 40
45.0
100
AcDbArc
 50
82.19359917076369
 51
90.0
  0
LINE
  5
102
330
1F
100
AcDbEntity
  8
0
  6
Continuous
 62
     7
370
    25
100
AcDbLine
 10
4312.39035236278
 20
3501.290321687799
 30
0.0
 11
3738.978888448479
 21
3579.90318367605
 31
0.0
  0
LINE
  5
103
330
1F
100
AcDbEntity
  8
0
  6
Continuous
 62
     7
370
    25
100
AcDbLine
 10
4351.278170954283
 20
3425.702975932603
 30
0.0
 11
4351.278170954283
 21
3456.707351414054
 31
0.0
  0
LWPOLYLINE
  5
104
330
1F
100
AcDbEntity
  8
0
  6
Continuous
 62
     7
370
    25
100
AcDbPolyline
 90
        3
 70
   128
 43
0.0
 10
4350.038908770751
 20
3425.320213402305
 10
4350.254779976038
 20
3425.40783230457
 10
4351.278170954283
 20
3425.702975932603
  0
ARC
  5
105
330
1F
100
AcDbEntity
  8
0
  6
Continuous
 62
     7
370
    25
100
AcDbCircle
 10
3823.278170954283
 20
3309.838691757087
 30
0.0
 40
15.00000000000022
100
AcDbArc
 50
180.0
 51
246.1964645256569
  0
LINE
  5
106
330
1F
100
AcDbEntity
  8
0
  6
Continuous
 62
     7
370
    25
100
AcDbLine
 10
3837.845404422846
 20
3287.018091018494
 30
0.0
 11
3817.22414464756
 21
3296.114670280949
 31
0.0
  0
ARC
  5
107
330
1F
100
AcDbEntity
  8
0
  6
Continuous
 62
     7
370
    25
100
AcDbCircle
 10
3843.899430729569
 20
3300.742112494631
 30
0.0
 40
14.99999999999981
100
AcDbArc
 50
246.1964645256562
 51
281.1964645256575
  0
LINE
  5
108
330
1F
100
AcDbEntity
  8
0
  6
Continuous
 62
     7
370
    25
100
AcDbLine
 10
3936.190778259641
 20
3303.719341211257
 30
0.0
 11
3846.812038034926
 21
3286.027605412002
 31
0.0
  0
ARC
  5
109
330
1F
100
AcDbEntity
  8
0
  6
Continuous
 62
     7
370
    25
100
AcDbCircle
 10
3933.278170954283
 20
3318.433848293887
 30
0.0
 40
15.00000000000015
100
AcDbArc
 50
281.1964645256572
 51
0.0
  0
LINE
  5
10A
330
1F
100
AcDbEntity
  8
0
  6
Continuous
 62
     7
370
    25
100
AcDbLine
 10
3948.278170954283
 20
3390.320213402306
 30
0.0
 11
3948.278170954283
 21
3318.433848293887
 31
0.0
  0
ARC
  5
10B
330
1F
100
AcDbEntity
  8
0
  6
Continuous
 62
     7
370
    25
100
AcDbCircle
 10
3933.278170954283
 20
3390.320213402306
 30
0.0
 40
15.0
100
AcDbArc
 50
0.0
 51
90.0
  0
LINE
  5
10C
330
1F
100
AcDbEntity
  8
0
  6
Continuous
 62
     7
370
    25
100
AcDbLine
 10
3823.278170954283
 20
3405.320213402305
 30
0.0
 11
3933.278170954283
 21
3405.320213402305
 31
0.0
  0
LINE
  5
10D
330
1F
100
AcDbEntity
  8
0
  6
Continuous
 62
     7
370
    25
100
AcDbLine
 10
3808.278170954283
 20
3309.838691757087
 30
0.0
 11
3808.278170954283
 21
3390.320213402306
 31
0.0
  0
ARC
  5
10E
330
1F
100
AcDbEntity
  8
0
  6
Continuous
 62
     7
370
    25
100
AcDbCircle
 10
3819.034367476773
 20
3259.947632982774
 30
0.0
 40
50.0000000000002
100
AcDbArc
 50
246.1964645256568
 51
281.1964645256572
  0
LINE
  5
10F
330
1F
100
AcDbEntity
  8
0
  6
Continuous
 62
     7
370
    25
100
AcDbLine
 10
3798.854279787697
 20
3214.200894728979
 30
0.0
 11
3800.872288556605
 21
3218.775568554358
 31
0.0
  0
LINE
  5
110
330
1F
100
AcDbEntity
  8
0
  6
Continuous
 62
     7
370
    25
100
AcDbLine
 10
3828.743058494632
 20
3210.899276040672
 30
0.0
 11
3827.772189392846
 21
3215.804111734883
 31
0.0
  0
ARC
  5
111
330
1F
100
AcDbEntity
  8
0
  6
Continuous
 62
     7
370
    25
100
AcDbCircle
 10
3732.866707039981
 20
3535.320213402305
 30
0.0
 40
50.0
100
AcDbArc
 50
82.1935991707641
 51
90.0
  0
LINE
  5
112
330
1F
100
AcDbEntity
  8
0
  6
Continuous
 62
     7
370
    25
100
AcDbLine
 10
3739.658019716089
 20
3584.856847039799
 30
0.0
 11
3738.978888448479
 21
3579.90318367605
 31
0.0
  0
LINE
  5
113
330
1F
100
AcDbEntity
  8
0
  6
Continuous
 62
     7
370
    25
100
AcDbLine
 10
3732.866707039981
 20
3585.320213402305
 30
0.0
 11
3732.866707039981
 21
3580.320213402305
 31
0.0
  0
LINE
  5
114
330
1F
100
AcDbEntity
  8
0
  6
Continuous
 62
     7
370
    25
100
AcDbLine
 10
3837.845404422846
 20
3287.018091018494
 30
0.0
 11
3839.863413191754
 21
3291.592764843873
 31
0.0
  0
ARC
  5
115
330
1F
100
AcDbEntity
  8
0
  6
Continuous
 62
     7
370
    25
100
AcDbCircle
 10
3843.899430729569
 20
3300.742112494631
 30
0.0
 40
9.99999999999995
100
AcDbArc
 50
246.1964645256573
 51
281.1964645256548
  0
LINE
  5
116
330
1F
100
AcDbEntity
  8
0
  6
Continuous
 62
     7
370
    25
100
AcDbLine
 10
3846.812038034926
 20
3286.027605412002
 30
0.0
 11
3845.84116893314
 21
3290.932441106212
 31
0.0
  0
ARC
  5
117
330
1F
100
AcDbEntity
  8
0
  6
Continuous
 62
     7
370
    25
100
AcDbCircle
 10
3628.278170954283
 20
3480.320213402305
 30
0.0
 40
55.74999999999992
100
AcDbArc
 50
279.4087928858831
 51
324.8544511602191
  0
ARC
  5
118
330
1F
100
AcDbEntity
  8
0
  6
Continuous
 62
     7
370
    25
100
AcDbCircle
 10
3628.278170954283
 20
3480.320213402305
 30
0.0
 40
55.74999999999994
100
AcDbArc
 50
335.1455488397768
 51
24.85445116021882
  0
ARC
  5
119
330
1F
100
AcDbEntity
  8
0
  6
Continuous
 62
     7
370
    25
100
AcDbCircle
 10
3628.278170954283
 20
3480.320213402305
 30
0.0
 40
55.75000000000039
100
AcDbArc
 50
35.14554883977603
 51
84.85445116021853
  0
ARC
  5
11A
330
1F
100
AcDbEntity
  8
0
  6
Continuous
 62
     7
370
    25
100
AcDbCircle
 10
3628.278170954283
 20
3480.320213402305
 30
0.0
 40
55.75
100
AcDbArc
 50
95.1455488397759
 51
180.0
  0
ARC
  5
11B
330
1F
100
AcDbEntity
  8
0
  6
Continuous
 62
     7
370
    25
100
AcDbCircle
 10
3628.278170954283
 20
3480.320213402305
 30
0.0
 40
55.74999999999995
100
AcDbArc
 50
240.0000000000007
 51
260.5912071141185
  0
LINE
  5
11C
330
1F
100
AcDbEntity
  8
0
  6
Continuous
 62
     7
370
    25
100
AcDbLine
 10
3933.278170954283
 20
3400.320213402306
 30
0.0
 11
3823.278170954283
 21
3400.320213402306
 31
0.0
  0
LINE
  5
11D
330
1F
100
AcDbEntity
  8
0
  6
Continuous
 62
     7
370
    25
100
AcDbLine
 10
3933.278170954283
 20
3400.320213402306
 30
0.0
 11
3933.278170954283
 21
3405.320213402305
 31
0.0
  0
ARC
  5
11E
330
1F
100
AcDbEntity
  8
0
  6
Continuous
 62
     7
370
    25
100
AcDbCircle
 10
4306.278170954283
 20
3356.393259977243
 30
0.0
 40
50.0
100
AcDbArc
 50
281.1964645256563
 51
0.0
  0
LINE
  5
11F
330
1F
100
AcDbEntity
  8
0
  6
Continuous
 62
     7
370
    25
100
AcDbLine
 10
4315.986861972141
 20
3307.344903035142
 30
0.0
 11
4315.015992870356
 21
3312.249738729351
 31
0.0
  0
LINE
  5
120
330
1F
100
AcDbEntity
  8
0
  6
Continuous
 62
     7
370
    25
100
AcDbLine
 10
4356.278170954283
 20
3356.393259977243
 30
0.0
 11
4351.278170954283
 21
3356.393259977243
 31
0.0
  0
LINE
  5
121
330
1F
100
AcDbEntity
  8
0
  6
Continuous
 62
     7
370
    25
100
AcDbLine
 10
4356.278170954283
 20
3412.820213402305
 30
0.0
 11
4356.278170954283
 21
3356.393259977243
 31
0.0
  0
LINE
  5
122
330
1F
100
AcDbEntity
  8
0
  6
Continuous
 62
     7
370
    25
100
AcDbLine
 10
4352.478170954283
 20
3412.820213402305
 30
0.0
 11
4351.278170954283
 21
3412.937450872007
 31
0.0
  0
LINE
  5
123
330
1F
100
AcDbEntity
  8
0
  6
Continuous
 62
     7
370
    25
100
AcDbLine
 10
4352.478170954283
 20
3412.820213402305
 30
0.0
 11
4356.278170954283
 21
3412.820213402305
 31
0.0
  0
LINE
  5
124
330
1F
100
AcDbEntity
  8
0
  6
Continuous
 62
     7
370
    25
100
AcDbLine
 10
3813.278170954283
 20
3390.320213402306
 30
0.0
 11
3813.278170954283
 21
3309.838691757087
 31
0.0
  0
LINE
  5
125
330
1F
100
AcDbEntity
  8
0
  6
Continuous
 62
     7
370
    25
100
AcDbLine
 10
3808.278170954283
 20
3309.838691757087
 30
0.0
 11
3813.278170954283
 21
3309.838691757087
 31
0.0
  0
LINE
  5
126
330
1F
100
AcDbEntity
  8
0
  6
Continuous
 62
     7
370
    25
100
AcDbLine
 10
4356.278170954283
 20
3456.707351414054
 30
0.0
 11
4356.278170954283
 21
3425.820213402306
 31
0.0
  0
LINE
  5
127
330
1F
100
AcDbEntity
  8
0
  6
Continuous
 62
     7
370
    25
100
AcDbLine
 10
4356.278170954283
 20
3425.820213402306
 30
0.0
 11
4352.478170954283
 21
3425.820213402306
 31
0.0
  0
LINE
  5
128
330
1F
100
AcDbEntity
  8
0
  6
Continuous
 62
     7
370
    25
100
AcDbLine
 10
4351.278170954283
 20
3425.702975932603
 30
0.0
 11
4352.478170954283
 21
3425.820213402306
 31
0.0
  0
LINE
  5
129
330
1F
100
AcDbEntity
  8
0
  6
Continuous
 62
     7
370
    25
100
AcDbLine
 10
3456.278170954283
 20
3397.912605176216
 30
0.0
 11
3456.278170954283
 21
3535.320213402305
 31
0.0
  0
LINE
  5
12A
330
1F
100
AcDbEntity
  8
0
  6
Continuous
 62
     7
370
    25
100
AcDbLine
 10
3456.278170954283
 20
3535.320213402305
 30
0.0
 11
3461.278170954283
 21
3535.320213402305
 31
0.0
  0
LINE
  5
12B
330
1F
100
AcDbEntity
  8
0
  6
Continuous
 62
     7
370
    25
100
AcDbLine
 10
3456.278170954283
 20
3397.912605176216
 30
0.0
 11
3461.278170954283
 21
3397.912605176216
 31
0.0
  0
ARC
  5
12C
330
1F
100
AcDbEntity
  8
0
  6
Continuous
 62
     7
370
    25
100
AcDbCircle
 10
3933.278170954283
 20
3390.320213402306
 30
0.0
 40
10.0
100
AcDbArc
 50
0.0
 51
90.0
  0
LINE
  5
12D
330
1F
100
AcDbEntity
  8
0
  6
Continuous
 62
     7
370
    25
100
AcDbLine
 10
3943.278170954283
 20
3390.320213402306
 30
0.0
 11
3948.278170954283
 21
3390.320213402306
 31
0.0
  0
LINE
  5
12E
330
1F
100
AcDbEntity
  8
0
  6
Continuous
 62
     7
370
    25
100
AcDbLine
 10
3739.658019716089
 20
3584.856847039799
 30
0.0
 11
4313.069483630391
 21
3506.243985051548
 31
0.0
  0
LINE
  5
12F
330
1F
100
AcDbEntity
  8
0
  6
Continuous
 62
     7
370
    25
100
AcDbLine
 10
3798.854279787697
 20
3214.200894728979
 30
0.0
 11
3486.098083265208
 21
3352.165866922421
 31
0.0
  0
LINE
  5
130
330
1F
100
AcDbEntity
  8
0
  6
Continuous
 62
     7
370
    25
100
AcDbLine
 10
3486.098083265208
 20
3352.165866922421
 30
0.0
 11
3488.116092034115
 21
3356.7405407478
 31
0.0
  0
ARC
  5
131
330
1F
100
AcDbEntity
  8
0
  6
Continuous
 62
     7
370
    25
100
AcDbCircle
 10
3933.278170954283
 20
3318.433848293887
 30
0.0
 40
10.00000000000048
100
AcDbArc
 50
281.1964645256594
 51
0.0
  0
LINE
  5
132
330
1F
100
AcDbEntity
  8
0
  6
Continuous
 62
     7
370
    25
100
AcDbLine
 10
3943.278170954283
 20
3318.433848293887
 30
0.0
 11
3948.278170954283
 21
3318.433848293887
 31
0.0
  0
LINE
  5
133
330
1F
100
AcDbEntity
  8
0
  6
Continuous
 62
     7
370
    25
100
AcDbLine
 10
3935.219909157855
 20
3308.624176905467
 30
0.0
 11
3936.190778259641
 21
3303.719341211257
 31
0.0
  0
LINE
  5
134
330
1F
100
AcDbEntity
  8
0
  6
Continuous
 62
     7
370
    25
100
AcDbLine
 10
3845.84116893314
 20
3290.932441106212
 30
0.0
 11
3935.219909157855
 21
3308.624176905467
 31
0.0
  0
LINE
  5
135
330
1F
100
AcDbEntity
  8
0
  6
Continuous
 62
     7
370
    25
100
AcDbLine
 10
3817.22414464756
 20
3296.114670280949
 30
0.0
 11
3819.242153416468
 21
3300.689344106328
 31
0.0
  0
LINE
  5
136
330
1F
100
AcDbEntity
  8
0
  6
Continuous
 62
     7
370
    25
100
AcDbLine
 10
3819.242153416468
 20
3300.689344106328
 30
0.0
 11
3839.863413191754
 21
3291.592764843873
 31
0.0
  0
LINE
  5
137
330
1F
100
AcDbEntity
  8
0
  6
Continuous
 62
     7
370
    25
100
AcDbLine
 10
3943.278170954283
 20
3318.433848293887
 30
0.0
 11
3943.278170954283
 21
3390.320213402306
 31
0.0
  0
LINE
  5
138
330
1F
100
AcDbEntity
  8
0
  6
Continuous
 62
     7
370
    25
100
AcDbLine
 10
3506.278170954283
 20
3585.320213402305
 30
0.0
 11
3732.866707039981
 21
3585.320213402305
 31
0.0
  0
LINE
  5
139
330
1F
100
AcDbEntity
  8
0
  6
Continuous
 62
     7
370
    25
100
AcDbLine
 10
3506.278170954283
 20
3585.320213402305
 30
0.0
 11
3506.278170954283
 21
3580.320213402305
 31
0.0
  0
ARC
  5
13A
330
1F
100
AcDbEntity
  8
0
  6
Continuous
 62
     7
370
    25
100
AcDbCircle
 10
3823.278170954283
 20
3309.838691757087
 30
0.0
 40
10.0
100
AcDbArc
 50
180.0
 51
246.1964645256562
  0
ARC
  5
13B
330
1F
100
AcDbEntity
  8
0
  6
Continuous
 62
     7
370
    25
100
AcDbCircle
 10
3506.278170954283
 20
3397.912605176216
 30
0.0
 40
50.0
100
AcDbArc
 50
180.0
 51
246.1964645256573
  0
ARC
  5
13C
330
1F
100
AcDbEntity
  8
0
  6
Continuous
 62
     7
370
    25
100
AcDbCircle
 10
3506.278170954283
 20
3535.320213402305
 30
0.0
 40
50.0
100
AcDbArc
 50
90.0
 51
180.0
  0
LINE
  5
13D
330
1F
100
AcDbEntity
  8
0
  6
Continuous
 62
     7
370
    25
100
AcDbLine
 10
4315.986861972141
 20
3307.344903035142
 30
0.0
 11
3828.743058494632
 21
3210.899276040672
 31
0.0
  0
LINE
  5
13E
330
1F
100
AcDbEntity
  8
0
  6
Continuous
 62
     7
370
    25
100
AcDbLine
 10
4514.278170954283
 20
3412.320213402305
 30
0.0
 11
4531.778170954281
 21
3412.320213402305
 31
0.0
  0
LINE
  5
13F
330
1F
100
AcDbEntity
  8
0
  6
Continuous
 62
     7
370
    25
100
AcDbLine
 10
4461.778170954283
 20
3412.320213402305
 30
0.0
 11
4514.278170954283
 21
3412.320213402305
 31
0.0
  0
LINE
  5
140
330
1F
100
AcDbEntity
  8
0
  6
Continuous
 62
     7
370
    25
100
AcDbLine
 10
4514.278170954283
 20
3393.320213402305
 30
0.0
 11
4461.778170954283
 21
3393.320213402305
 31
0.0
  0
LINE
  5
141
330
1F
100
AcDbEntity
  8
0
  6
Continuous
 62
     7
370
    25
100
AcDbLine
 10
4531.778170954281
 20
3393.320213402305
 30
0.0
 11
4514.278170954283
 21
3393.320213402305
 31
0.0
  0
LINE
  5
142
330
1F
100
AcDbEntity
  8
0
  6
Continuous
 62
     7
370
    25
100
AcDbLine
 10
4461.778170954283
 20
3445.320213402305
 30
0.0
 11
4531.778170954281
 21
3445.320213402305
 31
0.0
  0
LINE
  5
143
330
1F
100
AcDbEntity
  8
0
  6
Continuous
 62
     7
370
    25
100
AcDbLine
 10
4531.778170954281
 20
3426.320213402305
 30
0.0
 11
4461.778170954283
 21
3426.320213402305
 31
0.0
  0
LINE
  5
144
330
1F
100
AcDbEntity
  8
0
  6
Continuous
 62
     7
370
    25
100
AcDbLine
 10
3809.42232952217
 20
3418.320213402305
 30
0.0
 11
3932.090368135519
 21
3418.320213402305
 31
0.0
  0
LWPOLYLINE
  5
145
330
1F
100
AcDbEntity
  8
0
  6
Continuous
 62
     7
370
    25
100
AcDbPolyline
 90
        9
 70
   128
 43
0.0
 10
3932.090368135519
 20
3418.320213402305
 10
3932.065964252671
 20
3417.344761792224
 10
3931.993690431658
 20
3416.40679624048
 10
3931.876324114892
 20
3415.542362237207
 10
3931.718375624105
 20
3414.784679496372
 10
3931.525914831219
 20
3414.162865340792
 10
3931.306337896573
 20
3413.700815739748
 10
3931.068083038624
 20
3413.416287000288
 10
3930.820306257949
 20
3413.320213402304
  0
LINE
  5
146
330
1F
100
AcDbEntity
  8
0
  6
Continuous
 62
     7
370
    25
100
AcDbLine
 10
3930.820306257949
 20
3413.320213402304
 30
0.0
 11
3813.263435920158
 21
3413.320213402304
 31
0.0
  0
ARC
  5
147
330
1F
100
AcDbEntity
  8
0
  6
Continuous
 62
     7
370
    25
100
AcDbCircle
 10
3813.930294669809
 20
3417.807918320338
 30
0.0
 40
4.536980937069328
100
AcDbArc
 50
173.5165961078731
 51
261.5478768383265
  0
LINE
  5
148
330
1F
100
AcDbEntity
  8
0
  6
Continuous
 62
     7
370
    25
100
AcDbLine
 10
3932.090368135519
 20
3420.320213402305
 30
0.0
 11
3809.42232952217
 21
3420.320213402305
 31
0.0
  0
ARC
  5
149
330
1F
100
AcDbEntity
  8
0
  6
Continuous
 62
     7
370
    25
100
AcDbCircle
 10
3813.930294669809
 20
3420.832508484271
 30
0.0
 40
4.536980937070181
100
AcDbArc
 50
98.45212316168483
 51
186.4834038921207
  0
LINE
  5
14A
330
1F
100
AcDbEntity
  8
0
  6
Continuous
 62
     7
370
    25
100
AcDbLine
 10
3813.263435920158
 20
3425.320213402305
 30
0.0
 11
3930.820306257949
 21
3425.320213402305
 31
0.0
  0
LWPOLYLINE
  5
14B
330
1F
100
AcDbEntity
  8
0
  6
Continuous
 62
     7
370
    25
100
AcDbPolyline
 90
        9
 70
   128
 43
0.0
 10
3932.090368135519
 20
3420.320213402305
 10
3932.065964252671
 20
3421.295665012386
 10
3931.993690431658
 20
3422.23363056413
 10
3931.876324114892
 20
3423.098064567403
 10
3931.718375624105
 20
3423.855747308238
 10
3931.525914831219
 20
3424.477561463817
 10
3931.306337896573
 20
3424.939611064861
 10
3931.068083038624
 20
3425.224139804321
 10
3930.820306257949
 20
3425.320213402305
  0
LINE
  5
14C
330
1F
100
AcDbEntity
  8
0
  6
Continuous
 62
     7
370
    25
100
AcDbLine
 10
3809.42232952217
 20
3418.320213402305
 30
0.0
 11
3809.42232952217
 21
3420.320213402305
 31
0.0
  0
LINE
  5
14D
330
1F
100
AcDbEntity
  8
0
  6
Continuous
 62
     7
370
    25
100
AcDbLine
 10
3932.090368135519
 20
3418.320213402305
 30
0.0
 11
3932.090368135519
 21
3420.320213402305
 31
0.0
  0
LINE
  5
14E
330
1F
100
AcDbEntity
  8
0
  6
Continuous
 62
     7
370
    25
100
AcDbLine
 10
3932.090368135519
 20
3418.320213402305
 30
0.0
 11
4825.898542219698
 21
3418.320213402305
 31
0.0
  0
LWPOLYLINE
  5
14F
330
1F
100
AcDbEntity
  8
0
  6
Continuous
 62
     7
370
    25
100
AcDbPolyline
 90
        9
 70
   128
 43
0.0
 10
4825.898542219698
 20
3418.320213402305
 10
4825.874138336851
 20
3417.344761792224
 10
4825.801864515838
 20
3416.40679624048
 10
4825.684498199072
 20
3415.542362237207
 10
4825.526549708285
 20
3414.784679496372
 10
4825.3340889154
 20
3414.162865340792
 10
4825.114511980753
 20
3413.700815739748
 10
4824.876257122804
 20
3413.416287000288
 10
4824.62848034213
 20
3413.320213402304
  0
LINE
  5
150
330
1F
100
AcDbEntity
  8
0
  6
Continuous
 62
     7
370
    25
100
AcDbLine
 10
4824.62848034213
 20
3413.320213402304
 30
0.0
 11
3930.820306257949
 21
3413.320213402304
 31
0.0
  0
LINE
  5
151
330
1F
100
AcDbEntity
  8
0
  6
Continuous
 62
     7
370
    25
100
AcDbLine
 10
4825.898542219698
 20
3420.320213402305
 30
0.0
 11
3932.090368135519
 21
3420.320213402305
 31
0.0
  0
LINE
  5
152
330
1F
100
AcDbEntity
  8
0
  6
Continuous
 62
     7
370
    25
100
AcDbLine
 10
3930.820306257949
 20
3425.320213402305
 30
0.0
 11
4824.62848034213
 21
3425.320213402305
 31
0.0
  0
LWPOLYLINE
  5
153
330
1F
100
AcDbEntity
  8
0
  6
Continuous
 62
     7
370
    25
100
AcDbPolyline
 90
        9
 70
   128
 43
0.0
 10
4825.898542219698
 20
3420.320213402305
 10
4825.874138336851
 20
3421.295665012385
 10
4825.801864515838
 20
3422.23363056413
 10
4825.684498199072
 20
3423.098064567403
 10
4825.526549708285
 20
3423.855747308238
 10
4825.3340889154
 20
3424.477561463817
 10
4825.114511980753
 20
3424.939611064861
 10
4824.876257122804
 20
3425.224139804321
 10
4824.62848034213
 20
3425.320213402305
  0
LINE
  5
154
330
1F
100
AcDbEntity
  8
0
  6
Continuous
 62
     7
370
    25
100
AcDbLine
 10
4825.898542219698
 20
3418.320213402305
 30
0.0
 11
4825.898542219698
 21
3420.320213402305
 31
0.0
  0
LINE
  5
155
330
1F
100
AcDbEntity
  8
0
  6
Continuous
 62
     7
370
    25
100
AcDbLine
 10
3612.913745362335
 20
3418.320213402305
 30
0.0
 11
3809.42232952217
 21
3418.320213402305
 31
0.0
  0
ARC
  5
156
330
1F
100
AcDbEntity
  8
0
  6
Continuous
 62
     7
370
    25
100
AcDbCircle
 10
3617.421710509974
 20
3417.807918320338
 30
0.0
 40
4.536980937069328
100
AcDbArc
 50
173.5165961078731
 51
261.5478768383094
  0
LINE
  5
157
330
1F
100
AcDbEntity
  8
0
  6
Continuous
 62
     7
370
    25
100
AcDbLine
 10
3813.263435920158
 20
3413.320213402304
 30
0.0
 11
3616.754851760322
 21
3413.320213402304
 31
0.0
  0
LINE
  5
158
330
1F
100
AcDbEntity
  8
0
  6
Continuous
 62
     7
370
    25
100
AcDbLine
 10
3612.913745362335
 20
3420.320213402305
 30
0.0
 11
3612.913745362335
 21
3418.320213402305
 31
0.0
  0
LINE
  5
159
330
1F
100
AcDbEntity
  8
0
  6
Continuous
 62
     7
370
    25
100
AcDbLine
 10
3809.42232952217
 20
3420.320213402305
 30
0.0
 11
3612.913745362335
 21
3420.320213402305
 31
0.0
  0
ARC
  5
15A
330
1F
100
AcDbEntity
  8
0
  6
Continuous
 62
     7
370
    25
100
AcDbCircle
 10
3617.421710509974
 20
3420.832508484271
 30
0.0
 40
4.536980937070743
100
AcDbArc
 50
98.45212316169451
 51
186.4834038921099
  0
LINE
  5
15B
330
1F
100
AcDbEntity
  8
0
  6
Continuous
 62
     7
370
    25
100
AcDbLine
 10
3616.754851760322
 20
3425.320213402305
 30
0.0
 11
3813.263435920158
 21
3425.320213402305
 31
0.0
  0
ARC
  5
15C
330
1F
100
AcDbEntity
  8
0
  6
Continuous
 62
     7
370
    25
100
AcDbCircle
 10
4843.278170954282
 20
3420.320213402305
 30
0.0
 40
5.0
100
AcDbArc
 50
0.0
 51
90.0
  0
LINE
  5
15D
330
1F
100
AcDbEntity
  8
0
  6
Continuous
 62
     7
370
    25
100
AcDbLine
 10
4848.278170954283
 20
3420.320213402305
 30
0.0
 11
4825.898542219698
 21
3420.320213402305
 31
0.0
  0
LINE
  5
15E
330
1F
100
AcDbEntity
  8
0
  6
Continuous
 62
     7
370
    25
100
AcDbLine
 10
4824.62848034213
 20
3425.320213402305
 30
0.0
 11
4843.278170954282
 21
3425.320213402305
 31
0.0
  0
LINE
  5
15F
330
1F
100
AcDbEntity
  8
0
  6
Continuous
 62
     7
370
    25
100
AcDbLine
 10
4825.898542219698
 20
3418.320213402305
 30
0.0
 11
4848.278170954283
 21
3418.320213402305
 31
0.0
  0
LINE
  5
160
330
1F
100
AcDbEntity
  8
0
  6
Continuous
 62
     7
370
    25
100
AcDbLine
 10
4848.278170954283
 20
3420.320213402305
 30
0.0
 11
4848.278170954283
 21
3418.320213402305
 31
0.0
  0
ARC
  5
161
330
1F
100
AcDbEntity
  8
0
  6
Continuous
 62
     7
370
    25
100
AcDbCircle
 10
4843.278170954282
 20
3418.320213402305
 30
0.0
 40
5.0
100
AcDbArc
 50
270.0000000000008
 51
0.0
  0
LINE
  5
162
330
1F
100
AcDbEntity
  8
0
  6
Continuous
 62
     7
370
    25
100
AcDbLine
 10
4843.278170954282
 20
3413.320213402304
 30
0.0
 11
4824.62848034213
 21
3413.320213402304
 31
0.0
  0
LINE
  5
163
330
1F
100
AcDbEntity
  8
0
  6
Continuous
 62
     7
370
    25
100
AcDbLine
 10
3612.913745362335
 20
3420.320213402305
 30
0.0
 11
3608.278170954282
 21
3420.320213402305
 31
0.0
  0
ARC
  5
164
330
1F
100
AcDbEntity
  8
0
  6
Continuous
 62
     7
370
    25
100
AcDbCircle
 10
3613.278170954283
 20
3420.320213402305
 30
0.0
 40
5.0
100
AcDbArc
 50
90.0
 51
180.0
  0
LINE
  5
165
330
1F
100
AcDbEntity
  8
0
  6
Continuous
 62
     7
370
    25
100
AcDbLine
 10
3613.278170954283
 20
3425.320213402305
 30
0.0
 11
3616.754851760322
 21
3425.320213402305
 31
0.0
  0
LINE
  5
166
330
1F
100
AcDbEntity
  8
0
  6
Continuous
 62
     7
370
    25
100
AcDbLine
 10
3608.278170954282
 20
3418.320213402305
 30
0.0
 11
3612.913745362335
 21
3418.320213402305
 31
0.0
  0
LINE
  5
167
330
1F
100
AcDbEntity
  8
0
  6
Continuous
 62
     7
370
    25
100
AcDbLine
 10
3608.278170954282
 20
3418.320213402305
 30
0.0
 11
3608.278170954282
 21
3420.320213402305
 31
0.0
  0
ARC
  5
168
330
1F
100
AcDbEntity
  8
0
  6
Continuous
 62
     7
370
    25
100
AcDbCircle
 10
3613.278170954283
 20
3418.320213402305
 30
0.0
 40
5.0
100
AcDbArc
 50
180.0
 51
270.0000000000008
  0
LINE
  5
169
330
1F
100
AcDbEntity
  8
0
  6
Continuous
 62
     7
370
    25
100
AcDbLine
 10
3616.754851760322
 20
3413.320213402304
 30
0.0
 11
3613.278170954283
 21
3413.320213402304
 31
0.0
  0
LINE
  5
16A
330
1F
100
AcDbEntity
  8
0
  6
Continuous
 62
     7
370
    25
100
AcDbLine
 10
3637.242685465943
 20
3533.573733872832
 30
0.0
 11
3636.765812837402
 21
3533.573733872832
 31
0.0
  0
ARC
  5
16B
330
1F
100
AcDbEntity
  8
0
  6
Continuous
 62
     7
370
    25
100
AcDbCircle
 10
3637.400183322075
 20
3534.158431218796
 30
0.0
 40
0.6055382407941456
100
AcDbArc
 50
254.9242628569549
 51
327.4968951246109
  0
ARC
  5
16C
330
1F
100
AcDbEntity
  8
0
  6
Continuous
 62
     7
370
    25
100
AcDbCircle
 10
3638.754236849917
 20
3533.295700824038
 30
0.0
 40
1.000003627330429
100
AcDbArc
 50
10.13508900595216
 51
147.4968951246432
  0
ARC
  5
16D
330
1F
100
AcDbEntity
  8
0
  6
Continuous
 62
     7
370
    25
100
AcDbCircle
 10
3640.334726132743
 20
3533.578227585933
 30
0.0
 40
0.6055391918785408
100
AcDbArc
 50
190.1350890059786
 51
324.3536612987043
  0
ARC
  5
16E
330
1F
100
AcDbEntity
  8
0
  6
Continuous
 62
     7
370
    25
100
AcDbCircle
 10
3641.639437982532
 20
3532.642548667572
 30
0.0
 40
1.000003722292413
100
AcDbArc
 50
6.995922296337395
 51
144.353661298676
  0
ARC
  5
16F
330
1F
100
AcDbEntity
  8
0
  6
Continuous
 62
     7
370
    25
100
AcDbCircle
 10
3643.233026203517
 20
3532.838101574061
 30
0.0
 40
0.6055380421297427
100
AcDbArc
 50
186.9959222962932
 51
321.2146910882466
  0
ARC
  5
170
330
1F
100
AcDbEntity
  8
0
  6
Continuous
 62
     7
370
    25
100
AcDbCircle
 10
3644.484543769446
 20
3531.832383851397
 30
0.0
 40
1.000003721732729
100
AcDbArc
 50
3.856952052387162
 51
141.2146910882344
  0
ARC
  5
171
330
1F
100
AcDbEntity
  8
0
  6
Continuous
 62
     7
370
    25
100
AcDbCircle
 10
3646.086450290733
 20
3531.940381792266
 30
0.0
 40
0.6055391952195875
100
AcDbArc
 50
183.8569520524174
 51
318.0755257530868
  0
ARC
  5
172
330
1F
100
AcDbEntity
  8
0
  6
Continuous
 62
     7
370
    25
100
AcDbCircle
 10
3647.281016301878
 20
3530.867637598626
 30
0.0
 40
1.000003722292211
100
AcDbArc
 50
0.7178842445738205
 51
138.0755257530323
  0
ARC
  5
173
330
1F
100
AcDbEntity
  8
0
  6
Continuous
 62
     7
370
    25
100
AcDbCircle
 10
3648.88643319655
 20
3530.887753631911
 30
0.0
 40
0.6055391953820589
100
AcDbArc
 50
180.7178842445509
 51
314.9364540511671
  0
ARC
  5
174
330
1F
100
AcDbEntity
  8
0
  6
Continuous
 62
     7
370
    25
100
AcDbCircle
 10
3650.020463648538
 20
3529.751204911241
 30
0.0
 40
1.000003722292172
100
AcDbArc
 50
357.5788193201263
 51
134.9364540511072
  0
ARC
  5
175
330
1F
100
AcDbEntity
  8
0
  6
Continuous
 62
     7
370
    25
100
AcDbCircle
 10
3651.624573268424
 20
3529.683378751975
 30
0.0
 40
0.6055391953815923
100
AcDbArc
 50
177.5788193201341
 51
311.7973862534668
  0
ARC
  5
176
330
1F
100
AcDbEntity
  8
0
  6
Continuous
 62
     7
370
    25
100
AcDbCircle
 10
3652.694665153844
 20
3528.486436223176
 30
0.0
 40
1.000003722291849
100
AcDbArc
 50
354.439751521932
 51
131.7973862534893
  0
ARC
  5
177
330
1F
100
AcDbEntity
  8
0
  6
Continuous
 62
     7
370
    25
100
AcDbCircle
 10
3654.292653772083
 20
3528.33087132847
 30
0.0
 40
0.6055391953808044
100
AcDbArc
 50
174.439751521907
 51
308.6583186436071
  0
ARC
  5
178
330
1F
100
AcDbEntity
  8
0
  6
Continuous
 62
     7
370
    25
100
AcDbCircle
 10
3655.295595885284
 20
3527.077126867359
 30
0.0
 40
1.000003720955662
100
AcDbArc
 50
61.1070042676427
 51
128.6583186436544
  0
ARC
  5
179
330
1F
100
AcDbEntity
  8
0
  6
Continuous
 62
     7
370
    25
100
AcDbCircle
 10
3655.262133035045
 20
3527.096446764397
 30
0.0
 40
1.000003627330845
100
AcDbArc
 50
351.34167775456
 51
58.8929871121005
  0
ARC
  5
17A
330
1F
100
AcDbEntity
  8
0
  6
Continuous
 62
     7
370
    25
100
AcDbCircle
 10
3656.84937863095
 20
3526.854745546414
 30
0.0
 40
0.6055392903445616
100
AcDbArc
 50
171.3416777545416
 51
305.5602514674636
  0
ARC
  5
17B
330
1F
100
AcDbEntity
  8
0
  6
Continuous
 62
     7
370
    25
100
AcDbCircle
 10
3657.783096158971
 20
3525.54862930413
 30
0.0
 40
1.000003627328767
100
AcDbArc
 50
348.2026084729213
 51
125.5602514675416
  0
ARC
  5
17C
330
1F
100
AcDbEntity
  8
0
  6
Continuous
 62
     7
370
    25
100
AcDbCircle
 10
3659.354724804661
 20
3525.220373646587
 30
0.0
 40
0.6055393888080795
100
AcDbArc
 50
168.2026084729221
 51
302.4211821371298
  0
ARC
  5
17D
330
1F
100
AcDbEntity
  8
0
  6
Continuous
 62
     7
370
    25
100
AcDbCircle
 10
3660.215518771372
 20
3523.86508715291
 30
0.0
 40
1.000003426898276
100
AcDbArc
 50
345.0635421625889
 51
122.4211821371584
  0
ARC
  5
17E
330
1F
100
AcDbEntity
  8
0
  6
Continuous
 62
     7
370
    25
100
AcDbCircle
 10
3661.766814034758
 20
3523.451262230645
 30
0.0
 40
0.6055394907765644
100
AcDbArc
 50
165.0635421626383
 51
299.2821158755474
  0
ARC
  5
17F
330
1F
100
AcDbEntity
  8
0
  6
Continuous
 62
     7
370
    25
100
AcDbCircle
 10
3662.552101489182
 20
3522.050872401198
 30
0.0
 40
1.000003426897507
100
AcDbArc
 50
341.9244743646242
 51
119.2821158755697
  0
ARC
  5
180
330
1F
100
AcDbEntity
  8
0
  6
Continuous
 62
     7
370
    25
100
AcDbCircle
 10
3664.078408219385
 20
3521.552719988953
 30
0.0
 40
0.6055394907760229
100
AcDbArc
 50
161.9244743645779
 51
296.1430480775732
  0
ARC
  5
181
330
1F
100
AcDbEntity
  8
0
  6
Continuous
 62
     7
370
    25
100
AcDbCircle
 10
3664.785832523268
 20
3520.111429277553
 30
0.0
 40
1.000003426897802
100
AcDbArc
 50
338.7854065666663
 51
116.1430480775992
  0
ARC
  5
182
330
1F
100
AcDbEntity
  8
0
  6
Continuous
 62
     7
370
    25
100
AcDbCircle
 10
3666.282570468946
 20
3519.530444267024
 30
0.0
 40
0.6055394907759486
100
AcDbArc
 50
158.7854065666411
 51
293.0039802795635
  0
ARC
  5
183
330
1F
100
AcDbEntity
  8
0
  6
Continuous
 62
     7
370
    25
100
AcDbCircle
 10
3666.910008732403
 20
3518.052577802813
 30
0.0
 40
1.000003426898191
100
AcDbArc
 50
335.6463387686563
 51
113.0039802796302
  0
ARC
  5
184
330
1F
100
AcDbEntity
  8
0
  6
Continuous
 62
     7
370
    25
100
AcDbCircle
 10
3668.372686374353
 20
3517.390503655733
 30
0.0
 40
0.6055394907766544
100
AcDbArc
 50
155.6463387687328
 51
289.8649124816741
  0
ARC
  5
185
330
1F
100
AcDbEntity
  8
0
  6
Continuous
 62
     7
370
    25
100
AcDbCircle
 10
3668.91825573538
 20
3515.880496327009
 30
0.0
 40
1.000003426897067
100
AcDbArc
 50
332.5072743940532
 51
109.8649124816311
  0
ARC
  5
186
330
1F
100
AcDbEntity
  8
0
  6
Continuous
 62
     7
370
    25
100
AcDbCircle
 10
3670.342483809299
 20
3515.139319928336
 30
0.0
 40
0.6055394907762885
100
AcDbArc
 50
152.5072743941185
 51
225.0400897604616
  0
LINE
  5
187
330
1F
100
AcDbEntity
  8
0
  6
Continuous
 62
     7
370
    25
100
AcDbLine
 10
3670.153251437664
 20
3514.297487137961
 30
0.0
 11
3669.914602431466
 21
3514.71083935539
 31
0.0
  0
ARC
  5
188
330
1F
100
AcDbEntity
  8
0
  6
Continuous
 62
     7
370
    25
100
AcDbCircle
 10
3669.720238732232
 20
3514.047487144092
 30
0.0
 40
0.5000000000001965
100
AcDbArc
 50
332.8606794934554
 51
29.99999918865508
  0
ARC
  5
189
330
1F
100
AcDbEntity
  8
0
  6
Continuous
 62
     7
370
    25
100
AcDbCircle
 10
3678.207880608689
 20
3499.346460162277
 30
0.0
 40
0.5000000000000879
100
AcDbArc
 50
30.00000000001032
 51
87.13931620079412
  0
ARC
  5
18A
330
1F
100
AcDbEntity
  8
0
  6
Continuous
 62
     7
370
    25
100
AcDbCircle
 10
3680.992205421159
 20
3492.041168079433
 30
0.0
 40
1.000003721733708
100
AcDbArc
 50
303.8569520524151
 51
81.21469108817057
  0
ARC
  5
18B
330
1F
100
AcDbEntity
  8
0
  6
Continuous
 62
     7
370
    25
100
AcDbCircle
 10
3681.886687642151
 20
3490.707875307945
 30
0.0
 40
0.6055391952191066
100
AcDbArc
 50
123.8569520524257
 51
258.0755257530346
  0
ARC
  5
18C
330
1F
100
AcDbEntity
  8
0
  6
Continuous
 62
     7
370
    25
100
AcDbCircle
 10
3681.554946924269
 20
3489.136978698976
 30
0.0
 40
1.00000372229219
100
AcDbArc
 50
300.717884244581
 51
78.07552575303842
  0
ARC
  5
18D
330
1F
100
AcDbEntity
  8
0
  6
Continuous
 62
     7
370
    25
100
AcDbCircle
 10
3682.375076367454
 20
3487.756704901168
 30
0.0
 40
0.6055391953825672
100
AcDbArc
 50
120.7178842445706
 51
254.9364579574795
  0
ARC
  5
18E
330
1F
100
AcDbEntity
  8
0
  6
Continuous
 62
     7
370
    25
100
AcDbCircle
 10
3681.957811634413
 20
3486.206331332298
 30
0.0
 40
1.000003722291923
100
AcDbArc
 50
297.5788164465352
 51
74.93645795757071
  0
ARC
  5
18F
330
1F
100
AcDbEntity
  8
0
  6
Continuous
 62
     7
370
    25
100
AcDbCircle
 10
3682.701127196017
 20
3484.783218534109
 30
0.0
 40
0.605539195381482
100
AcDbArc
 50
117.5788164466115
 51
251.7973901596008
  0
ARC
  5
190
330
1F
100
AcDbEntity
  8
0
  6
Continuous
 62
     7
370
    25
100
AcDbCircle
 10
3682.199590605897
 20
3483.25802047836
 30
0.0
 40
1.000003722291737
100
AcDbArc
 50
294.4397486485757
 51
71.79739015958642
  0
ARC
  5
191
330
1F
100
AcDbEntity
  8
0
  6
Continuous
 62
     7
370
    25
100
AcDbCircle
 10
3682.863861690961
 20
3481.796339259342
 30
0.0
 40
0.6055391953808474
100
AcDbArc
 50
114.4397486486065
 51
248.6583183412644
  0
ARC
  5
192
330
1F
100
AcDbEntity
  8
0
  6
Continuous
 62
     7
370
    25
100
AcDbCircle
 10
3682.279558186007
 20
3480.300893682067
 30
0.0
 40
1.000003722293159
100
AcDbArc
 50
1.107004153083211
 51
68.65831834123908
  0
ARC
  5
193
330
1F
100
AcDbEntity
  8
0
  6
Continuous
 62
     7
370
    25
100
AcDbCircle
 10
3682.2795582875
 20
3480.339533301835
 30
0.0
 40
1.000003623628354
100
AcDbArc
 50
291.3416764527985
 51
358.8929874041515
  0
ARC
  5
194
330
1F
100
AcDbEntity
  8
0
  6
Continuous
 62
     7
370
    25
100
AcDbCircle
 10
3682.863861691064
 20
3478.844087583206
 30
0.0
 40
0.6055393888089351
100
AcDbArc
 50
111.3416764527642
 51
245.5602499351734
  0
ARC
  5
195
330
1F
100
AcDbEntity
  8
0
  6
Continuous
 62
     7
370
    25
100
AcDbCircle
 10
3682.199590612055
 20
3477.382406473436
 30
0.0
 40
1.000003426897434
100
AcDbArc
 50
288.20260996058
 51
65.56024993515773
  0
ARC
  5
196
330
1F
100
AcDbEntity
  8
0
  6
Continuous
 62
     7
370
    25
100
AcDbCircle
 10
3682.701127205375
 20
3475.857208418739
 30
0.0
 40
0.6055394907759949
100
AcDbArc
 50
108.2026099605571
 51
242.4211836734746
  0
ARC
  5
197
330
1F
100
AcDbEntity
  8
0
  6
Continuous
 62
     7
370
    25
100
AcDbCircle
 10
3681.957811646753
 20
3474.434095618992
 30
0.0
 40
1.000003426897411
100
AcDbArc
 50
285.0635421625737
 51
62.42118367355302
  0
ARC
  5
198
330
1F
100
AcDbEntity
  8
0
  6
Continuous
 62
     7
370
    25
100
AcDbCircle
 10
3682.375076383045
 20
3472.883722050997
 30
0.0
 40
0.6055394907760138
100
AcDbArc
 50
105.0635421626233
 51
239.2821158755663
  0
ARC
  5
199
330
1F
100
AcDbEntity
  8
0
  6
Continuous
 62
     7
370
    25
100
AcDbCircle
 10
3681.554946942755
 20
3471.50344825147
 30
0.0
 40
1.000003426898208
100
AcDbArc
 50
281.9244743646394
 51
59.28211587555331
  0
ARC
  5
19A
330
1F
100
AcDbEntity
  8
0
  6
Continuous
 62
     7
370
    25
100
AcDbCircle
 10
3681.886687663896
 20
3469.932551643024
 30
0.0
 40
0.605539490775609
100
AcDbArc
 50
101.924474364573
 51
236.1430480775765
  0
ARC
  5
19B
330
1F
100
AcDbEntity
  8
0
  6
Continuous
 62
     7
370
    25
100
AcDbCircle
 10
3680.992205445526
 20
3468.599258868907
 30
0.0
 40
1.000003426898325
100
AcDbArc
 50
278.7854065666229
 51
56.1430480775751
  0
ARC
  5
19C
330
1F
100
AcDbEntity
  8
0
  6
Continuous
 62
     7
370
    25
100
AcDbCircle
 10
3681.237426640029
 20
3467.012553279877
 30
0.0
 40
0.6055394907762884
100
AcDbArc
 50
98.78540656666366
 51
233.0039802796221
  0
ARC
  5
19D
330
1F
100
AcDbEntity
  8
0
  6
Continuous
 62
     7
370
    25
100
AcDbCircle
 10
3680.271275870349
 20
3465.73024257231
 30
0.0
 40
1.000003426897473
100
AcDbArc
 50
275.6463387686693
 51
53.00398027963467
  0
ARC
  5
19E
330
1F
100
AcDbEntity
  8
0
  6
Continuous
 62
     7
370
    25
100
AcDbCircle
 10
3680.429241660763
 20
3464.132489503294
 30
0.0
 40
0.6055394907765869
100
AcDbArc
 50
95.64633876863419
 51
229.8649124817151
  0
ARC
  5
19F
330
1F
100
AcDbEntity
  8
0
  6
Continuous
 62
     7
370
    25
100
AcDbCircle
 10
3679.394321634702
 20
3462.905008912757
 30
0.0
 40
1.000003426897235
100
AcDbArc
 50
272.5072707526249
 51
49.86491248164806
  0
ARC
  5
1A0
330
1F
100
AcDbEntity
  8
0
  6
Continuous
 62
     7
370
    25
100
AcDbCircle
 10
3679.464557974137
 20
3461.301003145108
 30
0.0
 40
0.6055393617038587
100
AcDbArc
 50
92.50727075268745
 51
165.040098512051
  0
LINE
  5
1A1
330
1F
100
AcDbEntity
  8
0
  6
Continuous
 62
     7
370
    25
100
AcDbLine
 10
3678.640893317239
 20
3461.043966672624
 30
0.0
 11
3678.879542324842
 21
3461.457318878968
 31
0.0
  0
ARC
  5
1A2
330
1F
100
AcDbEntity
  8
0
  6
Continuous
 62
     7
370
    25
100
AcDbCircle
 10
3678.207880615347
 20
3461.293966672624
 30
0.0
 40
0.5000000000004512
100
AcDbArc
 50
272.8606844056372
 51
329.9999999999905
  0
ARC
  5
1A3
330
1F
100
AcDbEntity
  8
0
  6
Continuous
 62
     7
370
    25
100
AcDbCircle
 10
3669.720238725601
 20
3446.59293969848
 30
0.0
 40
0.4999999999997628
100
AcDbArc
 50
330.0000000000356
 51
27.13931687665772
  0
LINE
  5
1A4
330
1F
100
AcDbEntity
  8
0
  6
Continuous
 62
     7
370
    25
100
AcDbLine
 10
3669.914815113222
 20
3445.929955887794
 30
0.0
 11
3670.153251427493
 21
3446.34293969848
 31
0.0
  0
ARC
  5
1A5
330
1F
100
AcDbEntity
  8
0
  6
Continuous
 62
     7
370
    25
100
AcDbCircle
 10
3670.342428940286
 20
3445.501210070359
 30
0.0
 40
0.6055382407941276
100
AcDbArc
 50
134.9242628568764
 51
207.4968951246344
  0
ARC
  5
1A6
330
1F
100
AcDbEntity
  8
0
  6
Continuous
 62
     7
370
    25
100
AcDbCircle
 10
3668.918255737886
 20
3444.759930514545
 30
0.0
 40
1.00000362733033
100
AcDbArc
 50
250.1350874695634
 51
27.49689512455093
  0
ARC
  5
1A7
330
1F
100
AcDbEntity
  8
0
  6
Continuous
 62
     7
370
    25
100
AcDbCircle
 10
3668.372686374384
 20
3443.249923182992
 30
0.0
 40
0.6055392938459317
100
AcDbArc
 50
70.13508746955285
 51
204.3536611825918
  0
ARC
  5
1A8
330
1F
100
AcDbEntity
  8
0
  6
Continuous
 62
     7
370
    25
100
AcDbCircle
 10
3666.910008735062
 20
3442.587849038601
 30
0.0
 40
1.000003620325191
100
AcDbArc
 50
246.9959221039175
 51
24.35366118254341
  0
ARC
  5
1A9
330
1F
100
AcDbEntity
  8
0
  6
Continuous
 62
     7
370
    25
100
AcDbCircle
 10
3666.282568405168
 20
3441.109984706705
 30
0.0
 40
0.6055381421542992
100
AcDbArc
 50
66.99592210392831
 51
201.214691062659
  0
ARC
  5
1AA
330
1F
100
AcDbEntity
  8
0
  6
Continuous
 62
     7
370
    25
100
AcDbCircle
 10
3664.78583252607
 20
3440.528997563712
 30
0.0
 40
1.000003620649179
100
AcDbArc
 50
243.8569518385392
 51
21.2146910626572
  0
ARC
  5
1AB
330
1F
100
AcDbEntity
  8
0
  6
Continuous
 62
     7
370
    25
100
AcDbCircle
 10
3664.078408220451
 20
3439.087706854111
 30
0.0
 40
0.6055392961750403
100
AcDbArc
 50
63.85695183852249
 51
198.0755257223308
  0
ARC
  5
1AC
330
1F
100
AcDbEntity
  8
0
  6
Continuous
 62
     7
370
    25
100
AcDbCircle
 10
3662.552101492119
 20
3438.589554439913
 30
0.0
 40
1.000003620325685
100
AcDbArc
 50
240.7178840388637
 51
18.07552572235919
  0
ARC
  5
1AD
330
1F
100
AcDbEntity
  8
0
  6
Continuous
 62
     7
370
    25
100
AcDbCircle
 10
3661.766814036121
 20
3437.189164612563
 30
0.0
 40
0.6055392962896566
100
AcDbArc
 50
60.71788403887247
 51
194.9364579309678
  0
ARC
  5
1AE
330
1F
100
AcDbEntity
  8
0
  6
Continuous
 62
     7
370
    25
100
AcDbCircle
 10
3660.215518774435
 20
3436.775339688038
 30
0.0
 40
1.000003620324754
100
AcDbArc
 50
237.5788162408995
 51
14.93645793093309
  0
ARC
  5
1AF
330
1F
100
AcDbEntity
  8
0
  6
Continuous
 62
     7
370
    25
100
AcDbCircle
 10
3659.354724715258
 20
3435.420053133551
 30
0.0
 40
0.6055392962887068
100
AcDbArc
 50
57.57881624082706
 51
191.7973901330598
  0
ARC
  5
1B0
330
1F
100
AcDbEntity
  8
0
  6
Continuous
 62
     7
370
    25
100
AcDbCircle
 10
3657.783096159003
 20
3435.091797534593
 30
0.0
 40
1.000003620324994
100
AcDbArc
 50
234.4397484428172
 51
11.79739013305384
  0
ARC
  5
1B1
330
1F
100
AcDbEntity
  8
0
  6
Continuous
 62
     7
370
    25
100
AcDbCircle
 10
3656.849378629555
 20
3433.785681294633
 30
0.0
 40
0.6055392962874513
100
AcDbArc
 50
54.43974844286471
 51
188.6583223350175
  0
ARC
  5
1B2
330
1F
100
AcDbEntity
  8
0
  6
Continuous
 62
     7
370
    25
100
AcDbCircle
 10
3655.262133035078
 20
3433.543980074328
 30
0.0
 40
1.000003620325593
100
AcDbArc
 50
301.1070128881085
 51
8.658322335046904
  0
ARC
  5
1B3
330
1F
100
AcDbEntity
  8
0
  6
Continuous
 62
     7
370
    25
100
AcDbCircle
 10
3655.295596055991
 20
3433.563299962385
 30
0.0
 40
1.000003623627431
100
AcDbArc
 50
231.3416764000279
 51
298.8929874040938
  0
ARC
  5
1B4
330
1F
100
AcDbEntity
  8
0
  6
Continuous
 62
     7
370
    25
100
AcDbCircle
 10
3654.292653772116
 20
3432.309555510255
 30
0.0
 40
0.6055393923116578
100
AcDbArc
 50
51.34167639997194
 51
185.5602499311509
  0
ARC
  5
1B5
330
1F
100
AcDbEntity
  8
0
  6
Continuous
 62
     7
370
    25
100
AcDbCircle
 10
3652.694665259307
 20
3432.153990584902
 30
0.0
 40
1.000003423394872
100
AcDbArc
 50
228.2026073486528
 51
5.56024993118098
  0
ARC
  5
1B6
330
1F
100
AcDbEntity
  8
0
  6
Continuous
 62
     7
370
    25
100
AcDbCircle
 10
3651.624573260799
 20
3430.957048198597
 30
0.0
 40
0.6055394634221197
100
AcDbArc
 50
48.20260734867386
 51
182.4211862774872
  0
ARC
  5
1B7
330
1F
100
AcDbEntity
  8
0
  6
Continuous
 62
     7
370
    25
100
AcDbCircle
 10
3650.020463678367
 20
3430.889221883919
 30
0.0
 40
1.00000342339586
100
AcDbArc
 50
225.0635395506769
 51
2.42118627747088
  0
ARC
  5
1B8
330
1F
100
AcDbEntity
  8
0
  6
Continuous
 62
     7
370
    25
100
AcDbCircle
 10
3648.886433121256
 20
3429.752673311728
 30
0.0
 40
0.6055394634225589
100
AcDbArc
 50
45.06353955073165
 51
179.2821198997514
  0
ARC
  5
1B9
330
1F
100
AcDbEntity
  8
0
  6
Continuous
 62
     7
370
    25
100
AcDbCircle
 10
3647.281016154024
 20
3429.772789229782
 30
0.0
 40
1.000003525362568
100
AcDbArc
 50
221.9244742444924
 51
359.2821198997298
  0
ARC
  5
1BA
330
1F
100
AcDbEntity
  8
0
  6
Continuous
 62
     7
370
    25
100
AcDbCircle
 10
3646.086450142713
 20
3428.700045036084
 30
0.0
 40
0.6055393923113131
100
AcDbArc
 50
41.92447424457549
 51
176.1430479574463
  0
ARC
  5
1BB
330
1F
100
AcDbEntity
  8
0
  6
Continuous
 62
     7
370
    25
100
AcDbCircle
 10
3644.484543620687
 20
3428.808042976726
 30
0.0
 40
1.000003525362827
100
AcDbArc
 50
218.785406446529
 51
356.143047957463
  0
ARC
  5
1BC
330
1F
100
AcDbEntity
  8
0
  6
Continuous
 62
     7
370
    25
100
AcDbCircle
 10
3643.233026867403
 20
3427.802322400848
 30
0.0
 40
0.6055393923113125
100
AcDbArc
 50
38.78540644651069
 51
173.0039801595073
  0
ARC
  5
1BD
330
1F
100
AcDbEntity
  8
0
  6
Continuous
 62
     7
370
    25
100
AcDbCircle
 10
3641.639437834677
 20
3427.997878160834
 30
0.0
 40
1.000003525362783
100
AcDbArc
 50
215.6463386485198
 51
353.0039801595151
  0
ARC
  5
1BE
330
1F
100
AcDbEntity
  8
0
  6
Continuous
 62
     7
370
    25
100
AcDbCircle
 10
3640.33472598118
 20
3427.062199241635
 30
0.0
 40
0.605539392311016
100
AcDbArc
 50
35.64633864860363
 51
169.8649123615195
  0
ARC
  5
1BF
330
1F
100
AcDbEntity
  8
0
  6
Continuous
 62
     7
370
    25
100
AcDbCircle
 10
3638.754236594684
 20
3427.344725983135
 30
0.0
 40
1.000003525362868
100
AcDbArc
 50
212.5072727858855
 51
349.86491236153
  0
ARC
  5
1C0
330
1F
100
AcDbEntity
  8
0
  6
Continuous
 62
     7
370
    25
100
AcDbCircle
 10
3637.400244943569
 20
3426.481896527677
 30
0.0
 40
0.6055393923109591
100
AcDbArc
 50
32.50727278588711
 51
105.0400646976269
  0
LINE
  5
1C1
330
1F
100
AcDbEntity
  8
0
  6
Continuous
 62
     7
370
    25
100
AcDbLine
 10
3636.76581283744
 20
3427.066692930804
 30
0.0
 11
3637.243110852644
 21
3427.066692930804
 31
0.0
  0
ARC
  5
1C2
330
1F
100
AcDbEntity
  8
0
  6
Continuous
 62
     7
370
    25
100
AcDbCircle
 10
3636.76581283744
 20
3427.566692930803
 30
0.0
 40
0.5000000000000228
100
AcDbArc
 50
212.8606663198285
 51
270.0000000000008
  0
ARC
  5
1C3
330
1F
100
AcDbEntity
  8
0
  6
Continuous
 62
     7
370
    25
100
AcDbCircle
 10
3619.79052907124
 20
3427.566692938472
 30
0.0
 40
0.5000000000004793
100
AcDbArc
 50
270.0000000000008
 51
327.1393327252789
  0
LINE
  5
1C4
330
1F
100
AcDbEntity
  8
0
  6
Continuous
 62
     7
370
    25
100
AcDbLine
 10
3619.313656442698
 20
3427.066692938472
 30
0.0
 11
3619.79052907124
 21
3427.066692938472
 31
0.0
  0
ARC
  5
1C5
330
1F
100
AcDbEntity
  8
0
  6
Continuous
 62
     7
370
    25
100
AcDbCircle
 10
3619.156158586565
 20
3426.481995592506
 30
0.0
 40
0.605538240795157
100
AcDbArc
 50
74.92426285697648
 51
147.4968951246201
  0
ARC
  5
1C6
330
1F
100
AcDbEntity
  8
0
  6
Continuous
 62
     7
370
    25
100
AcDbCircle
 10
3617.802105058724
 20
3427.344725987266
 30
0.0
 40
1.000003627329462
100
AcDbArc
 50
190.1350874695699
 51
327.496895124624
  0
ARC
  5
1C7
330
1F
100
AcDbEntity
  8
0
  6
Continuous
 62
     7
370
    25
100
AcDbCircle
 10
3616.221615667948
 20
3427.062199249809
 30
0.0
 40
0.6055392938460428
100
AcDbArc
 50
10.13508746951125
 51
144.3536612313634
  0
ARC
  5
1C8
330
1F
100
AcDbEntity
  8
0
  6
Continuous
 62
     7
370
    25
100
AcDbCircle
 10
3614.916903816413
 20
3427.997878171745
 30
0.0
 40
1.000003623827414
100
AcDbArc
 50
186.9959221895479
 51
324.353661231299
  0
ARC
  5
1C9
330
1F
100
AcDbEntity
  8
0
  6
Continuous
 62
     7
370
    25
100
AcDbCircle
 10
3613.32331559594
 20
3427.802325268333
 30
0.0
 40
0.6055381397107482
100
AcDbArc
 50
6.995922189520491
 51
141.2146909668824
  0
ARC
  5
1CA
330
1F
100
AcDbEntity
  8
0
  6
Continuous
 62
     7
370
    25
100
AcDbCircle
 10
3612.071798032268
 20
3428.808042993547
 30
0.0
 40
1.000003623990408
100
AcDbArc
 50
183.856951920171
 51
321.2146909668429
  0
ARC
  5
1CB
330
1F
100
AcDbEntity
  8
0
  6
Continuous
 62
     7
370
    25
100
AcDbCircle
 10
3607.669908606073
 20
3429.752673222599
 30
0.0
 40
0.6055392938465922
100
AcDbArc
 50
0.7178841244119078
 51
134.9364578374083
  0
ARC
  5
1CC
330
1F
100
AcDbEntity
  8
0
  6
Continuous
 62
     7
370
    25
100
AcDbCircle
 10
3606.535878078979
 20
3430.889221868329
 30
0.0
 40
1.000003623827163
100
AcDbArc
 50
177.5788163264368
 51
314.936457837385
  0
ARC
  5
1CD
330
1F
100
AcDbEntity
  8
0
  6
Continuous
 62
     7
370
    25
100
AcDbCircle
 10
3604.931768462638
 20
3430.957048111408
 30
0.0
 40
0.6055392938463417
100
AcDbArc
 50
357.5788163264687
 51
131.7973900394629
  0
ARC
  5
1CE
330
1F
100
AcDbEntity
  8
0
  6
Continuous
 62
     7
370
    25
100
AcDbCircle
 10
3603.861676498127
 20
3432.153990569498
 30
0.0
 40
1.000003623827507
100
AcDbArc
 50
174.4397485284665
 51
311.7973900394572
  0
ARC
  5
1CF
330
1F
100
AcDbEntity
  8
0
  6
Continuous
 62
     7
370
    25
100
AcDbCircle
 10
3601.260745698506
 20
3433.563299944988
 30
0.0
 40
1.000003620325798
100
AcDbArc
 50
241.1070128881117
 51
308.6583221927082
  0
ARC
  5
1D0
330
1F
100
AcDbEntity
  8
0
  6
Continuous
 62
     7
370
    25
100
AcDbCircle
 10
3601.294208722817
 20
3433.543980062819
 30
0.0
 40
1.000003623627189
100
AcDbArc
 50
171.3416764000267
 51
238.8929874041532
  0
ARC
  5
1D1
330
1F
100
AcDbEntity
  8
0
  6
Continuous
 62
     7
370
    25
100
AcDbCircle
 10
3599.706963035482
 20
3433.785681333119
 30
0.0
 40
0.6055393923120043
100
AcDbArc
 50
351.3416764000161
 51
125.560251351434
  0
ARC
  5
1D2
330
1F
100
AcDbEntity
  8
0
  6
Continuous
 62
     7
370
    25
100
AcDbCircle
 10
3598.773245510109
 20
3435.091797577296
 30
0.0
 40
1.000003525361462
100
AcDbArc
 50
168.2026098404352
 51
305.5602513513774
  0
ARC
  5
1D3
330
1F
100
AcDbEntity
  8
0
  6
Continuous
 62
     7
370
    25
100
AcDbCircle
 10
3597.201616952967
 20
3435.420053177197
 30
0.0
 40
0.6055393923114421
100
AcDbArc
 50
348.2026098404114
 51
122.4211835533856
  0
ARC
  5
1D4
330
1F
100
AcDbEntity
  8
0
  6
Continuous
 62
     7
370
    25
100
AcDbCircle
 10
3596.340822898089
 20
3436.775339735669
 30
0.0
 40
1.0000035253625
100
AcDbArc
 50
165.063542042458
 51
302.4211835534312
  0
ARC
  5
1D5
330
1F
100
AcDbEntity
  8
0
  6
Continuous
 62
     7
370
    25
100
AcDbCircle
 10
3594.78952763557
 20
3437.189164661186
 30
0.0
 40
0.6055393923120494
100
AcDbArc
 50
345.0635420425156
 51
119.2821157554007
  0
ARC
  5
1D6
330
1F
100
AcDbEntity
  8
0
  6
Continuous
 62
     7
370
    25
100
AcDbCircle
 10
3594.004240184083
 20
3438.58955449228
 30
0.0
 40
1.000003525362064
100
AcDbArc
 50
161.9244742445143
 51
299.2821157554251
  0
ARC
  5
1D7
330
1F
100
AcDbEntity
  8
0
  6
Continuous
 62
     7
370
    25
100
AcDbCircle
 10
3592.477933454923
 20
3439.087706907724
 30
0.0
 40
0.6055393923119437
100
AcDbArc
 50
341.924474244542
 51
116.1430479574948
  0
ARC
  5
1D8
330
1F
100
AcDbEntity
  8
0
  6
Continuous
 62
     7
370
    25
100
AcDbCircle
 10
3591.770509154062
 20
3440.528997620608
 30
0.0
 40
1.000003525362482
100
AcDbArc
 50
158.7854064465286
 51
296.1430479574399
  0
ARC
  5
1D9
330
1F
100
AcDbEntity
  8
0
  6
Continuous
 62
     7
370
    25
100
AcDbCircle
 10
3590.273771209602
 20
3441.109982634274
 30
0.0
 40
0.6055393923113187
100
AcDbArc
 50
338.7854064465137
 51
113.003980159531
  0
ARC
  5
1DA
330
1F
100
AcDbEntity
  8
0
  6
Continuous
 62
     7
370
    25
100
AcDbCircle
 10
3589.646332949243
 20
3442.587849099801
 30
0.0
 40
1.000003525361797
100
AcDbArc
 50
155.6463386485478
 51
293.0039801594712
  0
ARC
  5
1DB
330
1F
100
AcDbEntity
  8
0
  6
Continuous
 62
     7
370
    25
100
AcDbCircle
 10
3588.183655308682
 20
3443.249923249948
 30
0.0
 40
0.6055393923113806
100
AcDbArc
 50
335.6463386485174
 51
109.8649123615736
  0
ARC
  5
1DC
330
1F
100
AcDbEntity
  8
0
  6
Continuous
 62
     7
370
    25
100
AcDbCircle
 10
3587.638085950822
 20
3444.759930579816
 30
0.0
 40
1.000003525362608
100
AcDbArc
 50
152.5072707330114
 51
289.8649123614886
  0
ARC
  5
1DD
330
1F
100
AcDbEntity
  8
0
  6
Continuous
 62
     7
370
    25
100
AcDbCircle
 10
3586.83610302853
 20
3446.592939677531
 30
0.0
 40
0.5000000000006317
100
AcDbArc
 50
152.8606663261136
 51
209.999999999959
  0
ARC
  5
1DE
330
1F
100
AcDbEntity
  8
0
  6
Continuous
 62
     7
370
    25
100
AcDbCircle
 10
3573.692480066706
 20
3478.844087676725
 30
0.0
 40
0.6055392938451022
100
AcDbArc
 50
294.4397485284374
 51
68.65832237954498
  0
ARC
  5
1DF
330
1F
100
AcDbEntity
  8
0
  6
Continuous
 62
     7
370
    25
100
AcDbCircle
 10
3574.276783466258
 20
3480.339533295181
 30
0.0
 40
1.000003623827798
100
AcDbArc
 50
181.1070131881267
 51
248.6583223795545
  0
ARC
  5
1E0
330
1F
100
AcDbEntity
  8
0
  6
Continuous
 62
     7
370
    25
100
AcDbCircle
 10
3574.276783469861
 20
3480.300893514484
 30
0.0
 40
1.00000362733021
100
AcDbArc
 50
111.3416762181223
 51
178.8929871120519
  0
ARC
  5
1E1
330
1F
100
AcDbEntity
  8
0
  6
Continuous
 62
     7
370
    25
100
AcDbCircle
 10
3573.692480069799
 20
3481.796339242217
 30
0.0
 40
0.6055393923109535
100
AcDbArc
 50
291.3416762181829
 51
65.56025135135744
  0
ARC
  5
1E2
330
1F
100
AcDbEntity
  8
0
  6
Continuous
 62
     7
370
    25
100
AcDbCircle
 10
3574.356751154866
 20
3483.258020461238
 30
0.0
 40
1.000003525362608
100
AcDbArc
 50
108.2026098404372
 51
245.5602513514219
  0
ARC
  5
1E3
330
1F
100
AcDbEntity
  8
0
  6
Continuous
 62
     7
370
    25
100
AcDbCircle
 10
3573.855214564744
 20
3484.783218516986
 30
0.0
 40
0.6055393923106732
100
AcDbArc
 50
288.2026098404026
 51
62.42118355345303
  0
ARC
  5
1E4
330
1F
100
AcDbEntity
  8
0
  6
Continuous
 62
     7
370
    25
100
AcDbCircle
 10
3574.598530126348
 20
3486.206331315174
 30
0.0
 40
1.0000035253621
100
AcDbArc
 50
105.063542042449
 51
242.4211835534384
  0
ARC
  5
1E5
330
1F
100
AcDbEntity
  8
0
  6
Continuous
 62
     7
370
    25
100
AcDbCircle
 10
3574.181265393308
 20
3487.756704884044
 30
0.0
 40
0.6055393923114339
100
AcDbArc
 50
285.0635420424479
 51
59.28211575540805
  0
ARC
  5
1E6
330
1F
100
AcDbEntity
  8
0
  6
Continuous
 62
     7
370
    25
100
AcDbCircle
 10
3575.001394836492
 20
3489.136978681852
 30
0.0
 40
1.000003525362562
100
AcDbArc
 50
101.9244742445168
 51
239.2821157554427
  0
ARC
  5
1E7
330
1F
100
AcDbEntity
  8
0
  6
Continuous
 62
     7
370
    25
100
AcDbCircle
 10
3574.669654118644
 20
3490.707875290994
 30
0.0
 40
0.6055393923110599
100
AcDbArc
 50
281.9244742445016
 51
56.14304795746252
  0
ARC
  5
1E8
330
1F
100
AcDbEntity
  8
0
  6
Continuous
 62
     7
370
    25
100
AcDbCircle
 10
3575.564136339809
 20
3492.041168063235
 30
0.0
 40
1.000003525362787
100
AcDbArc
 50
98.78540644656277
 51
236.1430479574221
  0
ARC
  5
1E9
330
1F
100
AcDbEntity
  8
0
  6
Continuous
 62
     7
370
    25
100
AcDbCircle
 10
3575.318915148631
 20
3493.62787365278
 30
0.0
 40
0.6055393923113547
100
AcDbArc
 50
278.7854064465852
 51
53.00398015945145
  0
ARC
  5
1EA
330
1F
100
AcDbEntity
  8
0
  6
Continuous
 62
     7
370
    25
100
AcDbCircle
 10
3576.285065921001
 20
3494.91018435832
 30
0.0
 40
1.000003525363103
100
AcDbArc
 50
95.64633864854794
 51
233.0039801594702
  0
ARC
  5
1EB
330
1F
100
AcDbEntity
  8
0
  6
Continuous
 62
     7
370
    25
100
AcDbCircle
 10
3576.127100133934
 20
3496.507937427667
 30
0.0
 40
0.6055393923112648
100
AcDbArc
 50
275.6463386485904
 51
49.86491236147511
  0
ARC
  5
1EC
330
1F
100
AcDbEntity
  8
0
  6
Continuous
 62
     7
370
    25
100
AcDbCircle
 10
3577.162020162571
 20
3497.735418016034
 30
0.0
 40
1.000003525362483
100
AcDbArc
 50
92.50727090336003
 51
229.8649123615106
  0
ARC
  5
1ED
330
1F
100
AcDbEntity
  8
0
  6
Continuous
 62
     7
370
    25
100
AcDbCircle
 10
3577.091783813424
 20
3499.339423908949
 30
0.0
 40
0.6055393888091701
100
AcDbArc
 50
272.5072709033227
 51
345.0400766100198
  0
LINE
  5
1EE
330
1F
100
AcDbEntity
  8
0
  6
Continuous
 62
     7
370
    25
100
AcDbLine
 10
3577.915448447055
 20
3499.596460155132
 30
0.0
 11
3577.676799429151
 21
3499.183107944463
 31
0.0
  0
ARC
  5
1EF
330
1F
100
AcDbEntity
  8
0
  6
Continuous
 62
     7
370
    25
100
AcDbCircle
 10
3578.348461145409
 20
3499.346460149001
 30
0.0
 40
0.500000000000401
100
AcDbArc
 50
92.86066633036726
 51
149.9999991887317
  0
ARC
  5
1F0
330
1F
100
AcDbEntity
  8
0
  6
Continuous
 62
     7
370
    25
100
AcDbCircle
 10
3636.765812837402
 20
3533.073733872832
 30
0.0
 40
0.5
100
AcDbArc
 50
90.0
 51
147.1393335587424
  0
ARC
  5
1F1
330
1F
100
AcDbEntity
  8
0
  6
Continuous
 62
     7
370
    25
100
AcDbCircle
 10
3602.263687985292
 20
3528.330871309558
 30
0.0
 40
0.6055393888087595
100
AcDbArc
 50
231.3416762709135
 51
5.560253820434535
  0
ARC
  5
1F2
330
1F
100
AcDbEntity
  8
0
  6
Continuous
 62
     7
370
    25
100
AcDbCircle
 10
3598.773245511829
 20
3525.548629231413
 30
0.0
 40
1.000003724868141
100
AcDbArc
 50
54.43974855995097
 51
191.7973902402933
  0
ARC
  5
1F3
330
1F
100
AcDbEntity
  8
0
  6
Continuous
 62
     7
370
    25
100
AcDbCircle
 10
3597.201616956056
 20
3525.220373629487
 30
0.0
 40
0.6055391918793279
100
AcDbArc
 50
237.5788163579247
 51
11.79739024025789
  0
ARC
  5
1F4
330
1F
100
AcDbEntity
  8
0
  6
Continuous
 62
     7
370
    25
100
AcDbCircle
 10
3596.340822899577
 20
3523.865087073128
 30
0.0
 40
1.00000372486792
100
AcDbArc
 50
57.57881635795638
 51
194.9364580381906
  0
ARC
  5
1F5
330
1F
100
AcDbEntity
  8
0
  6
Continuous
 62
     7
370
    25
100
AcDbCircle
 10
3591.770509155723
 20
3520.111429188767
 30
0.0
 40
1.000003724190397
100
AcDbArc
 50
63.85695196783578
 51
201.2146911627228
  0
ARC
  5
1F6
330
1F
100
AcDbEntity
  8
0
  6
Continuous
 62
     7
370
    25
100
AcDbCircle
 10
3590.273773277625
 20
3519.530442043155
 30
0.0
 40
0.6055380386276924
100
AcDbArc
 50
246.9959222077179
 51
21.21469116270834
  0
ARC
  5
1F7
330
1F
100
AcDbEntity
  8
0
  6
Continuous
 62
     7
370
    25
100
AcDbCircle
 10
3574.356751148705
 20
3477.382406456313
 30
0.0
 40
1.000003623827002
100
AcDbArc
 50
114.4397485284241
 51
251.7973900394863
  0
ARC
  5
1F8
330
1F
100
AcDbEntity
  8
0
  6
Continuous
 62
     7
370
    25
100
AcDbCircle
 10
3573.855214555388
 20
3475.857208401615
 30
0.0
 40
0.6055392938461361
100
AcDbArc
 50
297.578816326381
 51
71.79739003955382
  0
ARC
  5
1F9
330
1F
100
AcDbEntity
  8
0
  6
Continuous
 62
     7
370
    25
100
AcDbCircle
 10
3574.598530114008
 20
3474.434095601869
 30
0.0
 40
1.000003623826974
100
AcDbArc
 50
117.5788163264661
 51
254.936457837404
  0
ARC
  5
1FA
330
1F
100
AcDbEntity
  8
0
  6
Continuous
 62
     7
370
    25
100
AcDbCircle
 10
3574.181265377717
 20
3472.883722033873
 30
0.0
 40
0.6055392938475065
100
AcDbArc
 50
300.7178841244289
 51
74.93645783741598
  0
ARC
  5
1FB
330
1F
100
AcDbEntity
  8
0
  6
Continuous
 62
     7
370
    25
100
AcDbCircle
 10
3575.001394818006
 20
3471.503448234346
 30
0.0
 40
1.000003623826773
100
AcDbArc
 50
120.7178841243924
 51
258.0755256354107
  0
ARC
  5
1FC
330
1F
100
AcDbEntity
  8
0
  6
Continuous
 62
     7
370
    25
100
AcDbCircle
 10
3574.669654096865
 20
3469.9325516259
 30
0.0
 40
0.6055392938469908
100
AcDbArc
 50
303.8569519201316
 51
78.07552563534691
  0
ARC
  5
1FD
330
1F
100
AcDbEntity
  8
0
  6
Continuous
 62
     7
370
    25
100
AcDbCircle
 10
3575.564136315272
 20
3468.599258851612
 30
0.0
 40
1.00000362398943
100
AcDbArc
 50
123.8569519201445
 51
261.2146909669058
  0
ARC
  5
1FE
330
1F
100
AcDbEntity
  8
0
  6
Continuous
 62
     7
370
    25
100
AcDbCircle
 10
3575.318917998038
 20
3467.012553985584
 30
0.0
 40
0.6055381397107556
100
AcDbArc
 50
306.9959221894697
 51
81.21469096691077
  0
ARC
  5
1FF
330
1F
100
AcDbEntity
  8
0
  6
Continuous
 62
     7
370
    25
100
AcDbCircle
 10
3576.285065890412
 20
3465.730242555187
 30
0.0
 40
1.000003623827367
100
AcDbArc
 50
126.9959221894945
 51
264.3536612313148
  0
ARC
  5
200
330
1F
100
AcDbEntity
  8
0
  6
Continuous
 62
     7
370
    25
100
AcDbCircle
 10
3576.127100099996
 20
3464.132489486172
 30
0.0
 40
0.6055392938461443
100
AcDbArc
 50
310.1350874696332
 51
84.35366123126613
  0
ARC
  5
201
330
1F
100
AcDbEntity
  8
0
  6
Continuous
 62
     7
370
    25
100
AcDbCircle
 10
3577.162020127271
 20
3462.905008892076
 30
0.0
 40
1.000003627329742
100
AcDbArc
 50
130.1350874695594
 51
267.4968951246098
  0
ARC
  5
202
330
1F
100
AcDbEntity
  8
0
  6
Continuous
 62
     7
370
    25
100
AcDbCircle
 10
3577.091900452714
 20
3461.300998941502
 30
0.0
 40
0.605538240794351
100
AcDbArc
 50
14.92426285695468
 51
87.4968951246233
  0
LINE
  5
203
330
1F
100
AcDbEntity
  8
0
  6
Continuous
 62
     7
370
    25
100
AcDbLine
 10
3577.677012135911
 20
3461.456950470032
 30
0.0
 11
3577.915448450182
 21
3461.043966659346
 31
0.0
  0
ARC
  5
204
330
1F
100
AcDbEntity
  8
0
  6
Continuous
 62
     7
370
    25
100
AcDbCircle
 10
3578.348461152074
 20
3461.293966659346
 30
0.0
 40
0.5000000000003064
100
AcDbArc
 50
209.999999999985
 51
267.1393327185337
  0
ARC
  5
205
330
1F
100
AcDbEntity
  8
0
  6
Continuous
 62
     7
370
    25
100
AcDbCircle
 10
3609.275325500787
 20
3429.772789252517
 30
0.0
 40
1.000003623827234
100
AcDbArc
 50
180.7178841244226
 51
318.0755256353963
  0
ARC
  5
206
330
1F
100
AcDbEntity
  8
0
  6
Continuous
 62
     7
370
    25
100
AcDbCircle
 10
3601.260745698467
 20
3527.077126859533
 30
0.0
 40
1.000003627329837
100
AcDbArc
 50
51.34167627086402
 51
118.8929871119355
  0
ARC
  5
207
330
1F
100
AcDbEntity
  8
0
  6
Continuous
 62
     7
370
    25
100
AcDbCircle
 10
3619.790529071202
 20
3533.073733880503
 30
0.0
 40
0.5
100
AcDbArc
 50
32.86066548905278
 51
90.0
  0
LINE
  5
208
330
1F
100
AcDbEntity
  8
0
  6
Continuous
 62
     7
370
    25
100
AcDbLine
 10
3619.790529071202
 20
3533.573733880503
 30
0.0
 11
3619.313231054178
 21
3533.573733880503
 31
0.0
  0
ARC
  5
209
330
1F
100
AcDbEntity
  8
0
  6
Continuous
 62
     7
370
    25
100
AcDbCircle
 10
3619.156096681896
 20
3534.158530309986
 30
0.0
 40
0.6055394907760359
100
AcDbArc
 50
212.5072743940395
 51
285.0400897604215
  0
ARC
  5
20A
330
1F
100
AcDbEntity
  8
0
  6
Continuous
 62
     7
370
    25
100
AcDbCircle
 10
3617.802105054999
 20
3533.295700816525
 30
0.0
 40
1.000003426897924
100
AcDbArc
 50
32.50727439406144
 51
169.8649124816368
  0
ARC
  5
20B
330
1F
100
AcDbEntity
  8
0
  6
Continuous
 62
     7
370
    25
100
AcDbCircle
 10
3616.221615667911
 20
3533.578227554713
 30
0.0
 40
0.6055394907763255
100
AcDbArc
 50
215.6463387687328
 51
349.8649124816467
  0
ARC
  5
20C
330
1F
100
AcDbEntity
  8
0
  6
Continuous
 62
     7
370
    25
100
AcDbCircle
 10
3614.916903816375
 20
3532.642548632776
 30
0.0
 40
1.000003426897914
100
AcDbArc
 50
35.64633876866529
 51
173.0039802796096
  0
ARC
  5
20D
330
1F
100
AcDbEntity
  8
0
  6
Continuous
 62
     7
370
    25
100
AcDbCircle
 10
3613.323314783239
 20
3532.838104389422
 30
0.0
 40
0.6055394907762671
100
AcDbArc
 50
218.7854065666541
 51
353.003980279599
  0
ARC
  5
20E
330
1F
100
AcDbEntity
  8
0
  6
Continuous
 62
     7
370
    25
100
AcDbCircle
 10
3612.071798032064
 20
3531.832383810921
 30
0.0
 40
1.00000342689744
100
AcDbArc
 50
38.78540656666177
 51
176.1430480775889
  0
ARC
  5
20F
330
1F
100
AcDbEntity
  8
0
  6
Continuous
 62
     7
370
    25
100
AcDbCircle
 10
3610.469891509812
 20
3531.940381748203
 30
0.0
 40
0.6055394907761787
100
AcDbArc
 50
221.9244743645639
 51
356.1430480776297
  0
ARC
  5
210
330
1F
100
AcDbEntity
  8
0
  6
Continuous
 62
     7
370
    25
100
AcDbCircle
 10
3609.275325500749
 20
3530.867637552002
 30
0.0
 40
1.00000342689855
100
AcDbArc
 50
41.92447436462287
 51
179.2821143391559
  0
ARC
  5
211
330
1F
100
AcDbEntity
  8
0
  6
Continuous
 62
     7
370
    25
100
AcDbCircle
 10
3607.669908708534
 20
3530.887753623693
 30
0.0
 40
0.6055393888090165
100
AcDbArc
 50
225.0635395814415
 51
359.2821143391719
  0
ARC
  5
212
330
1F
100
AcDbEntity
  8
0
  6
Continuous
 62
     7
370
    25
100
AcDbCircle
 10
3606.535878149282
 20
3529.751205048136
 30
0.0
 40
1.000003501903949
100
AcDbArc
 50
45.06353958146647
 51
182.4211860224203
  0
ARC
  5
213
330
1F
100
AcDbEntity
  8
0
  6
Continuous
 62
     7
370
    25
100
AcDbCircle
 10
3604.931768562657
 20
3529.683378740435
 30
0.0
 40
0.6055393888091471
100
AcDbArc
 50
228.202607379394
 51
2.421186022378686
  0
ARC
  5
214
330
1F
100
AcDbEntity
  8
0
  6
Continuous
 62
     7
370
    25
100
AcDbCircle
 10
3603.861676562193
 20
3528.486436350651
 30
0.0
 40
1.000003501904
100
AcDbArc
 50
48.20260737939086
 51
185.5602538204004
  0
ARC
  5
215
330
1F
100
AcDbEntity
  8
0
  6
Continuous
 62
     7
370
    25
100
AcDbCircle
 10
3610.46989150985
 20
3428.700045056316
 30
0.0
 40
0.6055392938460199
100
AcDbArc
 50
3.85695192011835
 51
138.075525635381
  0
ARC
  5
216
330
1F
100
AcDbEntity
  8
0
  6
Continuous
 62
     7
370
    25
100
AcDbCircle
 10
3586.213912820464
 20
3515.139216751266
 30
0.0
 40
0.6055382407953377
100
AcDbArc
 50
314.9242628569687
 51
27.49689512457395
  0
ARC
  5
217
330
1F
100
AcDbEntity
  8
0
  6
Continuous
 62
     7
370
    25
100
AcDbCircle
 10
3601.294208645221
 20
3527.096446589403
 30
0.0
 40
1.000003720955484
100
AcDbArc
 50
121.1070042674567
 51
188.6583185908469
  0
ARC
  5
218
330
1F
100
AcDbEntity
  8
0
  6
Continuous
 62
     7
370
    25
100
AcDbCircle
 10
3599.706963038684
 20
3526.854745473391
 30
0.0
 40
0.6055391918786494
100
AcDbArc
 50
234.4397485599492
 51
8.658318590824483
  0
ARC
  5
219
330
1F
100
AcDbEntity
  8
0
  6
Continuous
 62
     7
370
    25
100
AcDbCircle
 10
3594.789527638535
 20
3523.451262145665
 30
0.0
 40
0.6055391918806321
100
AcDbArc
 50
240.7178841559412
 51
14.93645803816579
  0
ARC
  5
21A
330
1F
100
AcDbEntity
  8
0
  6
Continuous
 62
     7
370
    25
100
AcDbCircle
 10
3594.004240185333
 20
3522.050872316594
 30
0.0
 40
1.000003724868
100
AcDbArc
 50
60.7178841559242
 51
198.075525836167
  0
ARC
  5
21B
330
1F
100
AcDbEntity
  8
0
  6
Continuous
 62
     7
370
    25
100
AcDbCircle
 10
3592.477933457757
 20
3521.552719899288
 30
0.0
 40
0.6055391918797405
100
AcDbArc
 50
243.8569519678407
 51
18.07552583614265
  0
ARC
  5
21C
330
1F
100
AcDbEntity
  8
0
  6
Continuous
 62
     7
370
    25
100
AcDbCircle
 10
3589.646332950011
 20
3518.052577709188
 30
0.0
 40
1.00000372486867
100
AcDbArc
 50
66.99592220767576
 51
204.3536614321171
  0
ARC
  5
21D
330
1F
100
AcDbEntity
  8
0
  6
Continuous
 62
     7
370
    25
100
AcDbCircle
 10
3588.183655311225
 20
3517.390503557365
 30
0.0
 40
0.6055391918795378
100
AcDbArc
 50
250.1350890060193
 51
24.35366143205234
  0
ARC
  5
21E
330
1F
100
AcDbEntity
  8
0
  6
Continuous
 62
     7
370
    25
100
AcDbCircle
 10
3587.638086022863
 20
3515.880496307082
 30
0.0
 40
1.000003627329546
100
AcDbArc
 50
70.13508900598049
 51
207.4968951246571
  0
LINE
  5
21F
330
1F
100
AcDbEntity
  8
0
  6
Continuous
 62
     7
370
    25
100
AcDbLine
 10
3586.641526647529
 20
3514.710470933831
 30
0.0
 11
3586.403090333258
 21
3514.297487123144
 31
0.0
  0
ARC
  5
220
330
1F
100
AcDbEntity
  8
0
  6
Continuous
 62
     7
370
    25
100
AcDbCircle
 10
3586.83610303515
 20
3514.047487123145
 30
0.0
 40
0.4999999999999796
100
AcDbArc
 50
150.0000000000348
 51
207.1393327156556
  0
ARC
  5
221
330
1F
100
AcDbEntity
  8
0
  6
Continuous
 62
     7
370
    25
100
AcDbCircle
 10
3602.263687888014
 20
3432.309555547693
 30
0.0
 40
0.6055392938448191
100
AcDbArc
 50
354.4397485284223
 51
128.6583221926668
  0
ARC
  5
222
330
1F
100
AcDbEntity
  8
0
  6
Continuous
 62
     7
370
    25
100
AcDbCircle
 10
3679.394321633491
 20
3497.735417929547
 30
0.0
 40
1.000003627330058
100
AcDbArc
 50
310.1350890059548
 51
87.49689512461008
  0
ARC
  5
223
330
1F
100
AcDbEntity
  8
0
  6
Continuous
 62
     7
370
    25
100
AcDbCircle
 10
3679.464441308049
 20
3499.339427880121
 30
0.0
 40
0.6055382407948265
100
AcDbArc
 50
194.9242628569859
 51
267.4968951245811
  0
ARC
  5
224
330
1F
100
AcDbEntity
  8
0
  6
Continuous
 62
     7
370
    25
100
AcDbCircle
 10
3680.429241627954
 20
3496.507937441159
 30
0.0
 40
0.6055391918785628
100
AcDbArc
 50
130.1350890059917
 51
264.3536612986575
  0
LINE
  5
225
330
1F
100
AcDbEntity
  8
0
  6
Continuous
 62
     7
370
    25
100
AcDbLine
 10
3586.403090326636
 20
3446.342939677531
 30
0.0
 11
3586.64173933424
 21
3445.929587471186
 31
0.0
  0
ARC
  5
226
330
1F
100
AcDbEntity
  8
0
  6
Continuous
 62
     7
370
    25
100
AcDbCircle
 10
3586.21385792426
 20
3445.501107069494
 30
0.0
 40
0.605539392311933
100
AcDbArc
 50
332.5072707330142
 51
45.04007615833116
  0
LINE
  5
227
330
1F
100
AcDbEntity
  8
0
  6
Continuous
 62
     7
370
    25
100
AcDbLine
 10
3678.879329624852
 20
3499.18347635159
 30
0.0
 11
3678.640893310581
 21
3499.596460162277
 31
0.0
  0
ARC
  5
228
330
1F
100
AcDbEntity
  8
0
  6
Continuous
 62
     7
370
    25
100
AcDbCircle
 10
3680.271275839762
 20
3494.910184375443
 30
0.0
 40
1.000003722292994
100
AcDbArc
 50
306.9959222963352
 51
84.35366129867324
  0
ARC
  5
229
330
1F
100
AcDbEntity
  8
0
  6
Continuous
 62
     7
370
    25
100
AcDbCircle
 10
3681.237423735059
 20
3493.627872946142
 30
0.0
 40
0.6055380421296445
100
AcDbArc
 50
126.9959222963932
 51
261.2146910881764
  0
ARC
  5
22A
330
1F
100
AcDbEntity
  8
0
  6
Continuous
 62
     7
370
    25
100
AcDbCircle
 10
4866.282570468946
 20
3519.530444267024
 30
0.0
 40
0.6055394907763726
100
AcDbArc
 50
158.7854065666567
 51
293.0039802795635
  0
ARC
  5
22B
330
1F
100
AcDbEntity
  8
0
  6
Continuous
 62
     7
370
    25
100
AcDbCircle
 10
4866.910008732403
 20
3518.052577802813
 30
0.0
 40
1.000003426898003
100
AcDbArc
 50
335.6463387686801
 51
113.00398027962
  0
ARC
  5
22C
330
1F
100
AcDbEntity
  8
0
  6
Continuous
 62
     7
370
    25
100
AcDbCircle
 10
4868.372686374352
 20
3517.390503655732
 30
0.0
 40
0.6055394907759224
100
AcDbArc
 50
155.6463387686366
 51
289.8649124817033
  0
ARC
  5
22D
330
1F
100
AcDbEntity
  8
0
  6
Continuous
 62
     7
370
    25
100
AcDbCircle
 10
4868.91825573538
 20
3515.880496327009
 30
0.0
 40
1.000003426897067
100
AcDbArc
 50
332.5072743940532
 51
109.8649124816801
  0
ARC
  5
22E
330
1F
100
AcDbEntity
  8
0
  6
Continuous
 62
     7
370
    25
100
AcDbCircle
 10
4870.3424838093
 20
3515.139319928336
 30
0.0
 40
0.6055394907766206
100
AcDbArc
 50
152.5072743940422
 51
225.0400897603703
  0
LINE
  5
22F
330
1F
100
AcDbEntity
  8
0
  6
Continuous
 62
     7
370
    25
100
AcDbLine
 10
4870.153251437664
 20
3514.297487137961
 30
0.0
 11
4869.914602431465
 21
3514.71083935539
 31
0.0
  0
ARC
  5
230
330
1F
100
AcDbEntity
  8
0
  6
Continuous
 62
     7
370
    25
100
AcDbCircle
 10
4869.720238732232
 20
3514.047487144092
 30
0.0
 40
0.4999999999997918
100
AcDbArc
 50
332.8606794934316
 51
29.99999918872626
  0
ARC
  5
231
330
1F
100
AcDbEntity
  8
0
  6
Continuous
 62
     7
370
    25
100
AcDbCircle
 10
4878.207880608688
 20
3499.346460162277
 30
0.0
 40
0.5000000000006317
100
AcDbArc
 50
29.99999999995821
 51
87.13931620074211
  0
LINE
  5
232
330
1F
100
AcDbEntity
  8
0
  6
Continuous
 62
     7
370
    25
100
AcDbLine
 10
4878.879329624852
 20
3499.18347635159
 30
0.0
 11
4878.640893310581
 21
3499.596460162277
 31
0.0
  0
ARC
  5
233
330
1F
100
AcDbEntity
  8
0
  6
Continuous
 62
     7
370
    25
100
AcDbCircle
 10
4879.464441308049
 20
3499.339427880121
 30
0.0
 40
0.6055382407947855
100
AcDbArc
 50
194.9242628570081
 51
267.496895124669
  0
ARC
  5
234
330
1F
100
AcDbEntity
  8
0
  6
Continuous
 62
     7
370
    25
100
AcDbCircle
 10
4879.39432163349
 20
3497.735417929547
 30
0.0
 40
1.000003627330251
100
AcDbArc
 50
310.1350890059947
 51
87.49689512458292
  0
ARC
  5
235
330
1F
100
AcDbEntity
  8
0
  6
Continuous
 62
     7
370
    25
100
AcDbCircle
 10
4880.429241627954
 20
3496.507937441159
 30
0.0
 40
0.605539191878659
100
AcDbArc
 50
130.1350890059589
 51
264.3536612987045
  0
ARC
  5
236
330
1F
100
AcDbEntity
  8
0
  6
Continuous
 62
     7
370
    25
100
AcDbCircle
 10
4880.271275839762
 20
3494.910184375443
 30
0.0
 40
1.000003722292586
100
AcDbArc
 50
306.9959222963352
 51
84.35366129864474
  0
ARC
  5
237
330
1F
100
AcDbEntity
  8
0
  6
Continuous
 62
     7
370
    25
100
AcDbCircle
 10
4881.237423735059
 20
3493.627872946142
 30
0.0
 40
0.6055380421295751
100
AcDbArc
 50
126.9959222963588
 51
261.214691088219
  0
ARC
  5
238
330
1F
100
AcDbEntity
  8
0
  6
Continuous
 62
     7
370
    25
100
AcDbCircle
 10
4880.992205421158
 20
3492.041168079433
 30
0.0
 40
1.000003721734157
100
AcDbArc
 50
303.8569520524367
 51
81.21469108817455
  0
ARC
  5
239
330
1F
100
AcDbEntity
  8
0
  6
Continuous
 62
     7
370
    25
100
AcDbCircle
 10
4881.886687642151
 20
3490.707875307944
 30
0.0
 40
0.6055391952188534
100
AcDbArc
 50
123.85695205239
 51
258.0755257530258
  0
ARC
  5
23A
330
1F
100
AcDbEntity
  8
0
  6
Continuous
 62
     7
370
    25
100
AcDbCircle
 10
4881.55494692427
 20
3489.136978698976
 30
0.0
 40
1.000003722292137
100
AcDbArc
 50
300.7178842445585
 51
78.07552575304381
  0
ARC
  5
23B
330
1F
100
AcDbEntity
  8
0
  6
Continuous
 62
     7
370
    25
100
AcDbCircle
 10
4882.375076367455
 20
3487.756704901168
 30
0.0
 40
0.6055391953825672
100
AcDbArc
 50
120.7178842446296
 51
254.9364579574795
  0
ARC
  5
23C
330
1F
100
AcDbEntity
  8
0
  6
Continuous
 62
     7
370
    25
100
AcDbCircle
 10
4881.957811634413
 20
3486.206331332296
 30
0.0
 40
1.000003722291932
100
AcDbArc
 50
297.5788164465592
 51
74.93645795755909
  0
ARC
  5
23D
330
1F
100
AcDbEntity
  8
0
  6
Continuous
 62
     7
370
    25
100
AcDbCircle
 10
4882.701127196018
 20
3484.783218534109
 30
0.0
 40
0.6055391953816241
100
AcDbArc
 50
117.5788164466115
 51
251.7973901595599
  0
ARC
  5
23E
330
1F
100
AcDbEntity
  8
0
  6
Continuous
 62
     7
370
    25
100
AcDbCircle
 10
4882.199590605896
 20
3483.25802047836
 30
0.0
 40
1.000003722291687
100
AcDbArc
 50
294.4397486486102
 51
71.79739015961931
  0
ARC
  5
23F
330
1F
100
AcDbEntity
  8
0
  6
Continuous
 62
     7
370
    25
100
AcDbCircle
 10
4882.863861690962
 20
3481.796339259341
 30
0.0
 40
0.6055391953808616
100
AcDbArc
 50
114.4397486485887
 51
248.6583183412087
  0
ARC
  5
240
330
1F
100
AcDbEntity
  8
0
  6
Continuous
 62
     7
370
    25
100
AcDbCircle
 10
4882.279558186008
 20
3480.300893682066
 30
0.0
 40
1.000003722293127
100
AcDbArc
 50
1.107004153110267
 51
68.65831834127283
  0
ARC
  5
241
330
1F
100
AcDbEntity
  8
0
  6
Continuous
 62
     7
370
    25
100
AcDbCircle
 10
4882.279558287501
 20
3480.339533301835
 30
0.0
 40
1.000003623627697
100
AcDbArc
 50
291.3416764527647
 51
358.8929874041505
  0
ARC
  5
242
330
1F
100
AcDbEntity
  8
0
  6
Continuous
 62
     7
370
    25
100
AcDbCircle
 10
4882.863861691063
 20
3478.844087583205
 30
0.0
 40
0.6055393888090475
100
AcDbArc
 50
111.3416764527886
 51
245.560249935177
  0
ARC
  5
243
330
1F
100
AcDbEntity
  8
0
  6
Continuous
 62
     7
370
    25
100
AcDbCircle
 10
4882.199590612056
 20
3477.382406473436
 30
0.0
 40
1.000003426897622
100
AcDbArc
 50
288.2026099605305
 51
65.56024993513401
  0
ARC
  5
244
330
1F
100
AcDbEntity
  8
0
  6
Continuous
 62
     7
370
    25
100
AcDbCircle
 10
4882.701127205375
 20
3475.857208418739
 30
0.0
 40
0.6055394907757663
100
AcDbArc
 50
108.2026099605571
 51
242.4211836736089
  0
ARC
  5
245
330
1F
100
AcDbEntity
  8
0
  6
Continuous
 62
     7
370
    25
100
AcDbCircle
 10
4881.957811646753
 20
3474.434095618992
 30
0.0
 40
1.000003426897832
100
AcDbArc
 50
285.0635421625989
 51
62.42118367350684
  0
ARC
  5
246
330
1F
100
AcDbEntity
  8
0
  6
Continuous
 62
     7
370
    25
100
AcDbCircle
 10
4882.375076383044
 20
3472.883722050997
 30
0.0
 40
0.605539490775888
100
AcDbArc
 50
105.0635421625513
 51
239.2821158755663
  0
ARC
  5
247
330
1F
100
AcDbEntity
  8
0
  6
Continuous
 62
     7
370
    25
100
AcDbCircle
 10
4881.554946942754
 20
3471.503448251469
 30
0.0
 40
1.000003426898208
100
AcDbArc
 50
281.9244743646394
 51
59.28211587558902
  0
ARC
  5
248
330
1F
100
AcDbEntity
  8
0
  6
Continuous
 62
     7
370
    25
100
AcDbCircle
 10
4881.886687663896
 20
3469.932551643023
 30
0.0
 40
0.6055394907749779
100
AcDbArc
 50
101.9244743646151
 51
236.1430480775883
  0
ARC
  5
249
330
1F
100
AcDbEntity
  8
0
  6
Continuous
 62
     7
370
    25
100
AcDbCircle
 10
4880.992205445526
 20
3468.599258868907
 30
0.0
 40
1.000003426898777
100
AcDbArc
 50
278.7854065666486
 51
56.14304807754634
  0
ARC
  5
24A
330
1F
100
AcDbEntity
  8
0
  6
Continuous
 62
     7
370
    25
100
AcDbCircle
 10
4881.237426640028
 20
3467.012553279877
 30
0.0
 40
0.6055394907757
100
AcDbArc
 50
98.78540656658516
 51
233.0039802796908
  0
ARC
  5
24B
330
1F
100
AcDbEntity
  8
0
  6
Continuous
 62
     7
370
    25
100
AcDbCircle
 10
4880.271275870349
 20
3465.73024257231
 30
0.0
 40
1.000003426897747
100
AcDbArc
 50
275.6463387686643
 51
53.00398027961386
  0
ARC
  5
24C
330
1F
100
AcDbEntity
  8
0
  6
Continuous
 62
     7
370
    25
100
AcDbCircle
 10
4880.429241660764
 20
3464.132489503294
 30
0.0
 40
0.6055394907765323
100
AcDbArc
 50
95.64633876872406
 51
229.8649124816544
  0
ARC
  5
24D
330
1F
100
AcDbEntity
  8
0
  6
Continuous
 62
     7
370
    25
100
AcDbCircle
 10
4879.394321634702
 20
3462.905008912756
 30
0.0
 40
1.000003426897443
100
AcDbArc
 50
272.5072707526509
 51
49.86491248166173
  0
ARC
  5
24E
330
1F
100
AcDbEntity
  8
0
  6
Continuous
 62
     7
370
    25
100
AcDbCircle
 10
4879.464557974137
 20
3461.301003145107
 30
0.0
 40
0.6055393617039162
100
AcDbArc
 50
92.50727075268745
 51
165.0400985119678
  0
LINE
  5
24F
330
1F
100
AcDbEntity
  8
0
  6
Continuous
 62
     7
370
    25
100
AcDbLine
 10
4878.640893317239
 20
3461.043966672624
 30
0.0
 11
4878.879542324842
 21
3461.457318878968
 31
0.0
  0
ARC
  5
250
330
1F
100
AcDbEntity
  8
0
  6
Continuous
 62
     7
370
    25
100
AcDbCircle
 10
4878.207880615347
 20
3461.293966672624
 30
0.0
 40
0.5000000000000879
100
AcDbArc
 50
272.860684405848
 51
329.9999999999905
  0
ARC
  5
251
330
1F
100
AcDbEntity
  8
0
  6
Continuous
 62
     7
370
    25
100
AcDbCircle
 10
4869.720238725601
 20
3446.59293969848
 30
0.0
 40
0.5000000000007694
100
AcDbArc
 50
329.9999999999905
 51
27.13931687654004
  0
LINE
  5
252
330
1F
100
AcDbEntity
  8
0
  6
Continuous
 62
     7
370
    25
100
AcDbLine
 10
4869.914815113221
 20
3445.929955887792
 30
0.0
 11
4870.153251427492
 21
3446.34293969848
 31
0.0
  0
ARC
  5
253
330
1F
100
AcDbEntity
  8
0
  6
Continuous
 62
     7
370
    25
100
AcDbCircle
 10
4870.342428940285
 20
3445.501210070358
 30
0.0
 40
0.605538240794321
100
AcDbArc
 50
134.9242628569677
 51
207.4968951245763
  0
ARC
  5
254
330
1F
100
AcDbEntity
  8
0
  6
Continuous
 62
     7
370
    25
100
AcDbCircle
 10
4868.918255737887
 20
3444.759930514544
 30
0.0
 40
1.000003627330057
100
AcDbArc
 50
250.13508746953
 51
27.49689512462122
  0
ARC
  5
255
330
1F
100
AcDbEntity
  8
0
  6
Continuous
 62
     7
370
    25
100
AcDbCircle
 10
4868.372686374384
 20
3443.249923182991
 30
0.0
 40
0.6055392938457441
100
AcDbArc
 50
70.13508746955285
 51
204.3536611825526
  0
ARC
  5
256
330
1F
100
AcDbEntity
  8
0
  6
Continuous
 62
     7
370
    25
100
AcDbCircle
 10
4866.910008735061
 20
3442.587849038601
 30
0.0
 40
1.000003620325191
100
AcDbArc
 50
246.9959221039175
 51
24.35366118253266
  0
ARC
  5
257
330
1F
100
AcDbEntity
  8
0
  6
Continuous
 62
     7
370
    25
100
AcDbCircle
 10
4866.282568405169
 20
3441.109984706705
 30
0.0
 40
0.6055381421541214
100
AcDbArc
 50
66.99592210396791
 51
201.2146910626746
  0
ARC
  5
258
330
1F
100
AcDbEntity
  8
0
  6
Continuous
 62
     7
370
    25
100
AcDbCircle
 10
4864.78583252607
 20
3440.528997563712
 30
0.0
 40
1.000003620649109
100
AcDbArc
 50
243.8569518385043
 51
21.21469106268149
  0
ARC
  5
259
330
1F
100
AcDbEntity
  8
0
  6
Continuous
 62
     7
370
    25
100
AcDbCircle
 10
4864.078408220451
 20
3439.08770685411
 30
0.0
 40
0.6055392961750693
100
AcDbArc
 50
63.85695183846419
 51
198.0755257223032
  0
ARC
  5
25A
330
1F
100
AcDbEntity
  8
0
  6
Continuous
 62
     7
370
    25
100
AcDbCircle
 10
4862.552101492119
 20
3438.589554439913
 30
0.0
 40
1.00000362032546
100
AcDbArc
 50
240.7178840388737
 51
18.07552572238396
  0
ARC
  5
25B
330
1F
100
AcDbEntity
  8
0
  6
Continuous
 62
     7
370
    25
100
AcDbCircle
 10
4861.766814036121
 20
3437.189164612563
 30
0.0
 40
0.6055392962898944
100
AcDbArc
 50
60.71788403883495
 51
194.9364579309566
  0
ARC
  5
25C
330
1F
100
AcDbEntity
  8
0
  6
Continuous
 62
     7
370
    25
100
AcDbCircle
 10
4860.215518774435
 20
3436.775339688037
 30
0.0
 40
1.000003620324614
100
AcDbArc
 50
237.5788162408635
 51
14.93645793099016
  0
ARC
  5
25D
330
1F
100
AcDbEntity
  8
0
  6
Continuous
 62
     7
370
    25
100
AcDbCircle
 10
4859.354724715259
 20
3435.420053133551
 30
0.0
 40
0.605539296288711
100
AcDbArc
 50
57.57881624087663
 51
191.7973901330931
  0
ARC
  5
25E
330
1F
100
AcDbEntity
  8
0
  6
Continuous
 62
     7
370
    25
100
AcDbCircle
 10
4857.783096159002
 20
3435.091797534593
 30
0.0
 40
1.000003620324986
100
AcDbArc
 50
234.4397484428809
 51
11.79739013302301
  0
ARC
  5
25F
330
1F
100
AcDbEntity
  8
0
  6
Continuous
 62
     7
370
    25
100
AcDbCircle
 10
4856.849378629554
 20
3433.785681294633
 30
0.0
 40
0.6055392962882448
100
AcDbArc
 50
54.43974844275969
 51
188.658322335024
  0
ARC
  5
260
330
1F
100
AcDbEntity
  8
0
  6
Continuous
 62
     7
370
    25
100
AcDbCircle
 10
4855.262133035079
 20
3433.543980074328
 30
0.0
 40
1.000003620325979
100
AcDbArc
 50
301.1070128880593
 51
8.658322335054748
  0
ARC
  5
261
330
1F
100
AcDbEntity
  8
0
  6
Continuous
 62
     7
370
    25
100
AcDbCircle
 10
4855.295596055991
 20
3433.563299962385
 30
0.0
 40
1.000003623627832
100
AcDbArc
 50
231.3416764000076
 51
298.8929874040914
  0
ARC
  5
262
330
1F
100
AcDbEntity
  8
0
  6
Continuous
 62
     7
370
    25
100
AcDbCircle
 10
4854.292653772115
 20
3432.309555510255
 30
0.0
 40
0.6055393923116137
100
AcDbArc
 50
51.34167639999882
 51
185.5602499311081
  0
ARC
  5
263
330
1F
100
AcDbEntity
  8
0
  6
Continuous
 62
     7
370
    25
100
AcDbCircle
 10
4852.694665259306
 20
3432.153990584902
 30
0.0
 40
1.000003423394872
100
AcDbArc
 50
228.2026073486917
 51
5.56024993118098
  0
ARC
  5
264
330
1F
100
AcDbEntity
  8
0
  6
Continuous
 62
     7
370
    25
100
AcDbCircle
 10
4851.624573260798
 20
3430.957048198596
 30
0.0
 40
0.6055394634224243
100
AcDbArc
 50
48.20260734866707
 51
182.4211862774013
  0
ARC
  5
265
330
1F
100
AcDbEntity
  8
0
  6
Continuous
 62
     7
370
    25
100
AcDbCircle
 10
4850.020463678368
 20
3430.889221883919
 30
0.0
 40
1.000003423395406
100
AcDbArc
 50
225.0635395507321
 51
2.421186277471981
  0
ARC
  5
266
330
1F
100
AcDbEntity
  8
0
  6
Continuous
 62
     7
370
    25
100
AcDbCircle
 10
4848.886433121256
 20
3429.752673311728
 30
0.0
 40
0.6055394634230136
100
AcDbArc
 50
45.06353955064033
 51
179.2821198997519
  0
ARC
  5
267
330
1F
100
AcDbEntity
  8
0
  6
Continuous
 62
     7
370
    25
100
AcDbCircle
 10
4847.281016154024
 20
3429.772789229782
 30
0.0
 40
1.000003525362114
100
AcDbArc
 50
221.9244742445467
 51
359.2821198997295
  0
ARC
  5
268
330
1F
100
AcDbEntity
  8
0
  6
Continuous
 62
     7
370
    25
100
AcDbCircle
 10
4846.086450142712
 20
3428.700045036084
 30
0.0
 40
0.605539392311912
100
AcDbArc
 50
41.92447424445723
 51
176.1430479574434
  0
ARC
  5
269
330
1F
100
AcDbEntity
  8
0
  6
Continuous
 62
     7
370
    25
100
AcDbCircle
 10
4844.484543620686
 20
3428.808042976726
 30
0.0
 40
1.000003525363062
100
AcDbArc
 50
218.7854064465779
 51
356.1430479574648
  0
ARC
  5
26A
330
1F
100
AcDbEntity
  8
0
  6
Continuous
 62
     7
370
    25
100
AcDbCircle
 10
4843.233026867403
 20
3427.802322400848
 30
0.0
 40
0.6055393923119518
100
AcDbArc
 50
38.78540644651728
 51
173.0039801594698
  0
ARC
  5
26B
330
1F
100
AcDbEntity
  8
0
  6
Continuous
 62
     7
370
    25
100
AcDbCircle
 10
4841.639437834675
 20
3427.997878160834
 30
0.0
 40
1.000003525363234
100
AcDbArc
 50
215.6463386485925
 51
353.0039801595182
  0
ARC
  5
26C
330
1F
100
AcDbEntity
  8
0
  6
Continuous
 62
     7
370
    25
100
AcDbCircle
 10
4840.33472598118
 20
3427.062199241635
 30
0.0
 40
0.6055393923105683
100
AcDbArc
 50
35.64633864850863
 51
169.8649123615119
  0
ARC
  5
26D
330
1F
100
AcDbEntity
  8
0
  6
Continuous
 62
     7
370
    25
100
AcDbCircle
 10
4838.754236594684
 20
3427.344725983135
 30
0.0
 40
1.000003525362484
100
AcDbArc
 50
212.5072727858996
 51
349.86491236153
  0
ARC
  5
26E
330
1F
100
AcDbEntity
  8
0
  6
Continuous
 62
     7
370
    25
100
AcDbCircle
 10
4837.40024494357
 20
3426.481896527676
 30
0.0
 40
0.6055393923118375
100
AcDbArc
 50
32.50727278591344
 51
105.0400646976046
  0
LINE
  5
26F
330
1F
100
AcDbEntity
  8
0
  6
Continuous
 62
     7
370
    25
100
AcDbLine
 10
4836.765812837438
 20
3427.066692930804
 30
0.0
 11
4837.243110852644
 21
3427.066692930804
 31
0.0
  0
ARC
  5
270
330
1F
100
AcDbEntity
  8
0
  6
Continuous
 62
     7
370
    25
100
AcDbCircle
 10
4836.765812837438
 20
3427.566692930803
 30
0.0
 40
0.5
100
AcDbArc
 50
212.8606663200884
 51
270.0000000000008
  0
ARC
  5
271
330
1F
100
AcDbEntity
  8
0
  6
Continuous
 62
     7
370
    25
100
AcDbCircle
 10
4819.79052907124
 20
3427.566692938471
 30
0.0
 40
0.500000000000121
100
AcDbArc
 50
270.0000000000008
 51
327.1393327254385
  0
LINE
  5
272
330
1F
100
AcDbEntity
  8
0
  6
Continuous
 62
     7
370
    25
100
AcDbLine
 10
4819.313656442698
 20
3427.066692938471
 30
0.0
 11
4819.79052907124
 21
3427.066692938471
 31
0.0
  0
ARC
  5
273
330
1F
100
AcDbEntity
  8
0
  6
Continuous
 62
     7
370
    25
100
AcDbCircle
 10
4819.156158586565
 20
3426.481995592506
 30
0.0
 40
0.6055382407949126
100
AcDbArc
 50
74.92426285692373
 51
147.4968951246563
  0
ARC
  5
274
330
1F
100
AcDbEntity
  8
0
  6
Continuous
 62
     7
370
    25
100
AcDbCircle
 10
4817.802105058724
 20
3427.344725987265
 30
0.0
 40
1.000003627329382
100
AcDbArc
 50
190.1350874695443
 51
327.4968951245881
  0
ARC
  5
275
330
1F
100
AcDbEntity
  8
0
  6
Continuous
 62
     7
370
    25
100
AcDbCircle
 10
4816.221615667947
 20
3427.062199249809
 30
0.0
 40
0.6055392938460944
100
AcDbArc
 50
10.13508746954604
 51
144.3536612312783
  0
ARC
  5
276
330
1F
100
AcDbEntity
  8
0
  6
Continuous
 62
     7
370
    25
100
AcDbCircle
 10
4814.916903816413
 20
3427.997878171744
 30
0.0
 40
1.000003623827193
100
AcDbArc
 50
186.9959221895447
 51
324.3536612313201
  0
ARC
  5
277
330
1F
100
AcDbEntity
  8
0
  6
Continuous
 62
     7
370
    25
100
AcDbCircle
 10
4813.32331559594
 20
3427.802325268333
 30
0.0
 40
0.6055381397102435
100
AcDbArc
 50
6.995922189483024
 51
141.2146909668554
  0
ARC
  5
278
330
1F
100
AcDbEntity
  8
0
  6
Continuous
 62
     7
370
    25
100
AcDbCircle
 10
4812.071798032268
 20
3428.808042993547
 30
0.0
 40
1.000003623990762
100
AcDbArc
 50
183.856951920171
 51
321.2146909668592
  0
ARC
  5
279
330
1F
100
AcDbEntity
  8
0
  6
Continuous
 62
     7
370
    25
100
AcDbCircle
 10
4810.469891509849
 20
3428.700045056316
 30
0.0
 40
0.6055392938463438
100
AcDbArc
 50
3.856951920155492
 51
138.0755256353842
  0
ARC
  5
27A
330
1F
100
AcDbEntity
  8
0
  6
Continuous
 62
     7
370
    25
100
AcDbCircle
 10
4809.275325500788
 20
3429.772789252517
 30
0.0
 40
1.000003623826779
100
AcDbArc
 50
180.717884124423
 51
318.0755256353789
  0
ARC
  5
27B
330
1F
100
AcDbEntity
  8
0
  6
Continuous
 62
     7
370
    25
100
AcDbCircle
 10
4807.669908606073
 20
3429.752673222598
 30
0.0
 40
0.6055392938470599
100
AcDbArc
 50
0.7178841244113686
 51
134.936457837378
  0
ARC
  5
27C
330
1F
100
AcDbEntity
  8
0
  6
Continuous
 62
     7
370
    25
100
AcDbCircle
 10
4806.535878078979
 20
3430.889221868328
 30
0.0
 40
1.000003623826932
100
AcDbArc
 50
177.5788163264108
 51
314.9364578374219
  0
ARC
  5
27D
330
1F
100
AcDbEntity
  8
0
  6
Continuous
 62
     7
370
    25
100
AcDbCircle
 10
4804.931768462637
 20
3430.957048111408
 30
0.0
 40
0.6055392938463417
100
AcDbArc
 50
357.5788163264257
 51
131.7973900394629
  0
ARC
  5
27E
330
1F
100
AcDbEntity
  8
0
  6
Continuous
 62
     7
370
    25
100
AcDbCircle
 10
4803.861676498126
 20
3432.153990569498
 30
0.0
 40
1.000003623827011
100
AcDbArc
 50
174.4397485284614
 51
311.7973900394746
  0
ARC
  5
27F
330
1F
100
AcDbEntity
  8
0
  6
Continuous
 62
     7
370
    25
100
AcDbCircle
 10
4802.263687888014
 20
3432.309555547693
 30
0.0
 40
0.6055392938457424
100
AcDbArc
 50
354.4397485284266
 51
128.6583221927071
  0
ARC
  5
280
330
1F
100
AcDbEntity
  8
0
  6
Continuous
 62
     7
370
    25
100
AcDbCircle
 10
4801.260745698507
 20
3433.563299944987
 30
0.0
 40
1.000003620325952
100
AcDbArc
 50
241.1070128880787
 51
308.6583221926634
  0
ARC
  5
281
330
1F
100
AcDbEntity
  8
0
  6
Continuous
 62
     7
370
    25
100
AcDbCircle
 10
4801.294208722818
 20
3433.543980062819
 30
0.0
 40
1.000003623627282
100
AcDbArc
 50
171.3416764000486
 51
238.8929874041579
  0
ARC
  5
282
330
1F
100
AcDbEntity
  8
0
  6
Continuous
 62
     7
370
    25
100
AcDbCircle
 10
4799.706963035482
 20
3433.785681333119
 30
0.0
 40
0.6055393923123011
100
AcDbArc
 50
351.341676400029
 51
125.560251351364
  0
ARC
  5
283
330
1F
100
AcDbEntity
  8
0
  6
Continuous
 62
     7
370
    25
100
AcDbCircle
 10
4798.773245510108
 20
3435.091797577295
 30
0.0
 40
1.000003525361991
100
AcDbArc
 50
168.2026098404151
 51
305.5602513514198
  0
ARC
  5
284
330
1F
100
AcDbEntity
  8
0
  6
Continuous
 62
     7
370
    25
100
AcDbCircle
 10
4797.201616952968
 20
3435.420053177197
 30
0.0
 40
0.6055393923109219
100
AcDbArc
 50
348.202609840436
 51
122.4211835534219
  0
ARC
  5
285
330
1F
100
AcDbEntity
  8
0
  6
Continuous
 62
     7
370
    25
100
AcDbCircle
 10
4796.340822898089
 20
3436.775339735669
 30
0.0
 40
1.0000035253625
100
AcDbArc
 50
165.063542042458
 51
302.4211835534172
  0
ARC
  5
286
330
1F
100
AcDbEntity
  8
0
  6
Continuous
 62
     7
370
    25
100
AcDbCircle
 10
4794.78952763557
 20
3437.189164661186
 30
0.0
 40
0.605539392311827
100
AcDbArc
 50
345.0635420425156
 51
119.2821157553632
  0
ARC
  5
287
330
1F
100
AcDbEntity
  8
0
  6
Continuous
 62
     7
370
    25
100
AcDbCircle
 10
4794.004240184082
 20
3438.58955449228
 30
0.0
 40
1.00000352536189
100
AcDbArc
 50
161.9244742444814
 51
299.2821157554607
  0
ARC
  5
288
330
1F
100
AcDbEntity
  8
0
  6
Continuous
 62
     7
370
    25
100
AcDbCircle
 10
4792.477933454923
 20
3439.087706907724
 30
0.0
 40
0.6055393923118499
100
AcDbArc
 50
341.9244742445554
 51
116.1430479574176
  0
ARC
  5
289
330
1F
100
AcDbEntity
  8
0
  6
Continuous
 62
     7
370
    25
100
AcDbCircle
 10
4791.770509154061
 20
3440.528997620608
 30
0.0
 40
1.000003525362741
100
AcDbArc
 50
158.7854064465623
 51
296.1430479574866
  0
ARC
  5
28A
330
1F
100
AcDbEntity
  8
0
  6
Continuous
 62
     7
370
    25
100
AcDbCircle
 10
4790.273771209601
 20
3441.109982634274
 30
0.0
 40
0.6055393923115595
100
AcDbArc
 50
338.7854064465137
 51
113.0039801594746
  0
ARC
  5
28B
330
1F
100
AcDbEntity
  8
0
  6
Continuous
 62
     7
370
    25
100
AcDbCircle
 10
4789.646332949243
 20
3442.587849099801
 30
0.0
 40
1.000003525361797
100
AcDbArc
 50
155.6463386485478
 51
293.0039801594712
  0
ARC
  5
28C
330
1F
100
AcDbEntity
  8
0
  6
Continuous
 62
     7
370
    25
100
AcDbCircle
 10
4788.183655308682
 20
3443.249923249948
 30
0.0
 40
0.6055393923113806
100
AcDbArc
 50
335.6463386485174
 51
109.8649123614926
  0
ARC
  5
28D
330
1F
100
AcDbEntity
  8
0
  6
Continuous
 62
     7
370
    25
100
AcDbCircle
 10
4787.638085950821
 20
3444.759930579816
 30
0.0
 40
1.000003525362608
100
AcDbArc
 50
152.5072707330114
 51
289.8649123615376
  0
ARC
  5
28E
330
1F
100
AcDbEntity
  8
0
  6
Continuous
 62
     7
370
    25
100
AcDbCircle
 10
4786.213857924261
 20
3445.501107069493
 30
0.0
 40
0.6055393923113981
100
AcDbArc
 50
332.5072707330126
 51
45.04007615839202
  0
LINE
  5
28F
330
1F
100
AcDbEntity
  8
0
  6
Continuous
 62
     7
370
    25
100
AcDbLine
 10
4786.403090326636
 20
3446.34293967753
 30
0.0
 11
4786.64173933424
 21
3445.929587471186
 31
0.0
  0
ARC
  5
290
330
1F
100
AcDbEntity
  8
0
  6
Continuous
 62
     7
370
    25
100
AcDbCircle
 10
4786.836103028528
 20
3446.59293967753
 30
0.0
 40
0.4999999999996168
100
AcDbArc
 50
152.8606663259733
 51
209.999999999966
  0
ARC
  5
291
330
1F
100
AcDbEntity
  8
0
  6
Continuous
 62
     7
370
    25
100
AcDbCircle
 10
4778.348461152073
 20
3461.293966659346
 30
0.0
 40
0.5000000000003291
100
AcDbArc
 50
210.0000000000562
 51
267.1393327184816
  0
LINE
  5
292
330
1F
100
AcDbEntity
  8
0
  6
Continuous
 62
     7
370
    25
100
AcDbLine
 10
4777.67701213591
 20
3461.456950470032
 30
0.0
 11
4777.915448450182
 21
3461.043966659345
 31
0.0
  0
ARC
  5
293
330
1F
100
AcDbEntity
  8
0
  6
Continuous
 62
     7
370
    25
100
AcDbCircle
 10
4777.091900452712
 20
3461.300998941502
 30
0.0
 40
0.6055382407949436
100
AcDbArc
 50
14.92426285702675
 51
87.49689512458219
  0
ARC
  5
294
330
1F
100
AcDbEntity
  8
0
  6
Continuous
 62
     7
370
    25
100
AcDbCircle
 10
4777.162020127271
 20
3462.905008892076
 30
0.0
 40
1.000003627330077
100
AcDbArc
 50
130.1350874695594
 51
267.4968951245848
  0
ARC
  5
295
330
1F
100
AcDbEntity
  8
0
  6
Continuous
 62
     7
370
    25
100
AcDbCircle
 10
4776.127100099997
 20
3464.132489486172
 30
0.0
 40
0.6055392938458513
100
AcDbArc
 50
310.1350874696003
 51
84.35366123130895
  0
ARC
  5
296
330
1F
100
AcDbEntity
  8
0
  6
Continuous
 62
     7
370
    25
100
AcDbCircle
 10
4776.285065890411
 20
3465.730242555187
 30
0.0
 40
1.00000362382699
100
AcDbArc
 50
126.9959221894372
 51
264.3536612313641
  0
ARC
  5
297
330
1F
100
AcDbEntity
  8
0
  6
Continuous
 62
     7
370
    25
100
AcDbCircle
 10
4775.318917998037
 20
3467.012553985584
 30
0.0
 40
0.6055381397113028
100
AcDbArc
 50
306.9959221895385
 51
81.21469096682572
  0
ARC
  5
298
330
1F
100
AcDbEntity
  8
0
  6
Continuous
 62
     7
370
    25
100
AcDbCircle
 10
4775.564136315272
 20
3468.599258851612
 30
0.0
 40
1.000003623989499
100
AcDbArc
 50
123.8569519201877
 51
261.2146909668801
  0
ARC
  5
299
330
1F
100
AcDbEntity
  8
0
  6
Continuous
 62
     7
370
    25
100
AcDbCircle
 10
4774.669654096864
 20
3469.932551625899
 30
0.0
 40
0.6055392938464941
100
AcDbArc
 50
303.8569519201439
 51
78.0755256353979
  0
ARC
  5
29A
330
1F
100
AcDbEntity
  8
0
  6
Continuous
 62
     7
370
    25
100
AcDbCircle
 10
4775.001394818006
 20
3471.503448234345
 30
0.0
 40
1.000003623826773
100
AcDbArc
 50
120.7178841243924
 51
258.0755256354107
  0
ARC
  5
29B
330
1F
100
AcDbEntity
  8
0
  6
Continuous
 62
     7
370
    25
100
AcDbCircle
 10
4774.181265377716
 20
3472.883722033873
 30
0.0
 40
0.6055392938472743
100
AcDbArc
 50
300.7178841243919
 51
74.93645783738561
  0
ARC
  5
29C
330
1F
100
AcDbEntity
  8
0
  6
Continuous
 62
     7
370
    25
100
AcDbCircle
 10
4774.598530114007
 20
3474.434095601868
 30
0.0
 40
1.000003623826621
100
AcDbArc
 50
117.5788163264079
 51
254.9364578374476
  0
ARC
  5
29D
330
1F
100
AcDbEntity
  8
0
  6
Continuous
 62
     7
370
    25
100
AcDbCircle
 10
4773.855214555387
 20
3475.857208401615
 30
0.0
 40
0.6055392938465571
100
AcDbArc
 50
297.5788163264572
 51
71.79739003951294
  0
ARC
  5
29E
330
1F
100
AcDbEntity
  8
0
  6
Continuous
 62
     7
370
    25
100
AcDbCircle
 10
4774.356751148705
 20
3477.382406456313
 30
0.0
 40
1.000003623827327
100
AcDbArc
 50
114.4397485284715
 51
251.7973900394782
  0
ARC
  5
29F
330
1F
100
AcDbEntity
  8
0
  6
Continuous
 62
     7
370
    25
100
AcDbCircle
 10
4773.692480066705
 20
3478.844087676725
 30
0.0
 40
0.6055392938454441
100
AcDbArc
 50
294.4397485284197
 51
68.65832237946484
  0
ARC
  5
2A0
330
1F
100
AcDbEntity
  8
0
  6
Continuous
 62
     7
370
    25
100
AcDbCircle
 10
4774.276783466258
 20
3480.339533295181
 30
0.0
 40
1.000003623827632
100
AcDbArc
 50
181.1070131881272
 51
248.6583223795787
  0
ARC
  5
2A1
330
1F
100
AcDbEntity
  8
0
  6
Continuous
 62
     7
370
    25
100
AcDbCircle
 10
4774.27678346986
 20
3480.300893514484
 30
0.0
 40
1.000003627329528
100
AcDbArc
 50
111.3416762181656
 51
178.8929871120515
  0
ARC
  5
2A2
330
1F
100
AcDbEntity
  8
0
  6
Continuous
 62
     7
370
    25
100
AcDbCircle
 10
4773.6924800698
 20
3481.796339242217
 30
0.0
 40
0.6055393923114697
100
AcDbArc
 50
291.3416762180714
 51
65.5602513513966
  0
ARC
  5
2A3
330
1F
100
AcDbEntity
  8
0
  6
Continuous
 62
     7
370
    25
100
AcDbCircle
 10
4774.356751154865
 20
3483.258020461237
 30
0.0
 40
1.000003525362194
100
AcDbArc
 50
108.2026098403877
 51
245.5602513514111
  0
ARC
  5
2A4
330
1F
100
AcDbEntity
  8
0
  6
Continuous
 62
     7
370
    25
100
AcDbCircle
 10
4773.855214564743
 20
3484.783218516986
 30
0.0
 40
0.6055393923115315
100
AcDbArc
 50
288.2026098405118
 51
62.42118355335684
  0
ARC
  5
2A5
330
1F
100
AcDbEntity
  8
0
  6
Continuous
 62
     7
370
    25
100
AcDbCircle
 10
4774.598530126348
 20
3486.206331315174
 30
0.0
 40
1.000003525362292
100
AcDbArc
 50
105.0635420424558
 51
242.4211835534736
  0
ARC
  5
2A6
330
1F
100
AcDbEntity
  8
0
  6
Continuous
 62
     7
370
    25
100
AcDbCircle
 10
4774.181265393307
 20
3487.756704884044
 30
0.0
 40
0.605539392311785
100
AcDbArc
 50
285.0635420424368
 51
59.28211575542306
  0
ARC
  5
2A7
330
1F
100
AcDbEntity
  8
0
  6
Continuous
 62
     7
370
    25
100
AcDbCircle
 10
4775.001394836492
 20
3489.136978681852
 30
0.0
 40
1.000003525362749
100
AcDbArc
 50
101.9244742445114
 51
239.2821157553846
  0
ARC
  5
2A8
330
1F
100
AcDbEntity
  8
0
  6
Continuous
 62
     7
370
    25
100
AcDbCircle
 10
4774.669654118643
 20
3490.707875290994
 30
0.0
 40
0.6055393923114351
100
AcDbArc
 50
281.9244742444927
 51
56.14304795743855
  0
ARC
  5
2A9
330
1F
100
AcDbEntity
  8
0
  6
Continuous
 62
     7
370
    25
100
AcDbCircle
 10
4775.564136339808
 20
3492.041168063235
 30
0.0
 40
1.000003525362787
100
AcDbArc
 50
98.78540644656675
 51
236.1430479574583
  0
ARC
  5
2AA
330
1F
100
AcDbEntity
  8
0
  6
Continuous
 62
     7
370
    25
100
AcDbCircle
 10
4775.318915148631
 20
3493.627873652779
 30
0.0
 40
0.6055393923112853
100
AcDbArc
 50
278.7854064465426
 51
53.00398015945145
  0
ARC
  5
2AB
330
1F
100
AcDbEntity
  8
0
  6
Continuous
 62
     7
370
    25
100
AcDbCircle
 10
4776.285065921
 20
3494.91018435832
 30
0.0
 40
1.000003525363193
100
AcDbArc
 50
95.64633864859979
 51
233.003980159465
  0
ARC
  5
2AC
330
1F
100
AcDbEntity
  8
0
  6
Continuous
 62
     7
370
    25
100
AcDbCircle
 10
4776.127100133934
 20
3496.507937427667
 30
0.0
 40
0.6055393923109495
100
AcDbArc
 50
275.6463386485947
 51
49.86491236153575
  0
ARC
  5
2AD
330
1F
100
AcDbEntity
  8
0
  6
Continuous
 62
     7
370
    25
100
AcDbCircle
 10
4777.16202016257
 20
3497.735418016034
 30
0.0
 40
1.000003525362709
100
AcDbArc
 50
92.50727090333398
 51
229.8649123614907
  0
ARC
  5
2AE
330
1F
100
AcDbEntity
  8
0
  6
Continuous
 62
     7
370
    25
100
AcDbCircle
 10
4777.091783813424
 20
3499.339423908949
 30
0.0
 40
0.605539388809298
100
AcDbArc
 50
272.5072709033656
 51
345.0400766100419
  0
LINE
  5
2AF
330
1F
100
AcDbEntity
  8
0
  6
Continuous
 62
     7
370
    25
100
AcDbLine
 10
4777.915448447056
 20
3499.596460155132
 30
0.0
 11
4777.676799429152
 21
3499.183107944463
 31
0.0
  0
ARC
  5
2B0
330
1F
100
AcDbEntity
  8
0
  6
Continuous
 62
     7
370
    25
100
AcDbCircle
 10
4778.348461145408
 20
3499.346460149001
 30
0.0
 40
0.4999999999999451
100
AcDbArc
 50
92.86066633047136
 51
149.9999991886535
  0
ARC
  5
2B1
330
1F
100
AcDbEntity
  8
0
  6
Continuous
 62
     7
370
    25
100
AcDbCircle
 10
4786.836103035151
 20
3514.047487123145
 30
0.0
 40
0.5000000000003945
100
AcDbArc
 50
150.0000000000348
 51
207.1393327157484
  0
LINE
  5
2B2
330
1F
100
AcDbEntity
  8
0
  6
Continuous
 62
     7
370
    25
100
AcDbLine
 10
4786.64152664753
 20
3514.710470933831
 30
0.0
 11
4786.403090333259
 21
3514.297487123144
 31
0.0
  0
ARC
  5
2B3
330
1F
100
AcDbEntity
  8
0
  6
Continuous
 62
     7
370
    25
100
AcDbCircle
 10
4786.213912820463
 20
3515.139216751266
 30
0.0
 40
0.6055382407957895
100
AcDbArc
 50
314.92426285706
 51
27.49689512457395
  0
ARC
  5
2B4
330
1F
100
AcDbEntity
  8
0
  6
Continuous
 62
     7
370
    25
100
AcDbCircle
 10
4787.638086022862
 20
3515.880496307081
 30
0.0
 40
1.000003627329391
100
AcDbArc
 50
70.135089006005
 51
207.496895124622
  0
ARC
  5
2B5
330
1F
100
AcDbEntity
  8
0
  6
Continuous
 62
     7
370
    25
100
AcDbCircle
 10
4788.183655311224
 20
3517.390503557364
 30
0.0
 40
0.6055391918793111
100
AcDbArc
 50
250.1350890058978
 51
24.35366143210929
  0
ARC
  5
2B6
330
1F
100
AcDbEntity
  8
0
  6
Continuous
 62
     7
370
    25
100
AcDbCircle
 10
4789.646332950011
 20
3518.052577709188
 30
0.0
 40
1.000003724868089
100
AcDbArc
 50
66.9959222076554
 51
204.3536614321171
  0
ARC
  5
2B7
330
1F
100
AcDbEntity
  8
0
  6
Continuous
 62
     7
370
    25
100
AcDbCircle
 10
4790.273773277625
 20
3519.530442043155
 30
0.0
 40
0.6055380386272686
100
AcDbArc
 50
246.9959222077347
 51
21.21469116272391
  0
ARC
  5
2B8
330
1F
100
AcDbEntity
  8
0
  6
Continuous
 62
     7
370
    25
100
AcDbCircle
 10
4791.770509155723
 20
3520.111429188767
 30
0.0
 40
1.000003724190647
100
AcDbArc
 50
63.85695196782387
 51
201.2146911627228
  0
ARC
  5
2B9
330
1F
100
AcDbEntity
  8
0
  6
Continuous
 62
     7
370
    25
100
AcDbCircle
 10
4792.477933457756
 20
3521.552719899287
 30
0.0
 40
0.6055391918792569
100
AcDbArc
 50
243.8569519678414
 51
18.0755258361702
  0
ARC
  5
2BA
330
1F
100
AcDbEntity
  8
0
  6
Continuous
 62
     7
370
    25
100
AcDbCircle
 10
4794.004240185333
 20
3522.050872316594
 30
0.0
 40
1.000003724867755
100
AcDbArc
 50
60.7178841559242
 51
198.0755258361999
  0
ARC
  5
2BB
330
1F
100
AcDbEntity
  8
0
  6
Continuous
 62
     7
370
    25
100
AcDbCircle
 10
4794.789527638535
 20
3523.451262145665
 30
0.0
 40
0.6055391918802331
100
AcDbArc
 50
240.7178841558827
 51
14.93645803817688
  0
ARC
  5
2BC
330
1F
100
AcDbEntity
  8
0
  6
Continuous
 62
     7
370
    25
100
AcDbCircle
 10
4796.340822899576
 20
3523.865087073128
 30
0.0
 40
1.000003724868101
100
AcDbArc
 50
57.5788163579344
 51
194.9364580381906
  0
ARC
  5
2BD
330
1F
100
AcDbEntity
  8
0
  6
Continuous
 62
     7
370
    25
100
AcDbCircle
 10
4797.201616956056
 20
3525.220373629487
 30
0.0
 40
0.605539191879303
100
AcDbArc
 50
237.5788163579973
 51
11.79739024024909
  0
ARC
  5
2BE
330
1F
100
AcDbEntity
  8
0
  6
Continuous
 62
     7
370
    25
100
AcDbCircle
 10
4798.77324551183
 20
3525.548629231412
 30
0.0
 40
1.000003724868586
100
AcDbArc
 50
54.43974855994493
 51
191.797390240288
  0
ARC
  5
2BF
330
1F
100
AcDbEntity
  8
0
  6
Continuous
 62
     7
370
    25
100
AcDbCircle
 10
4799.706963038683
 20
3526.854745473391
 30
0.0
 40
0.6055391918785976
100
AcDbArc
 50
234.4397485599591
 51
8.658318590867022
  0
ARC
  5
2C0
330
1F
100
AcDbEntity
  8
0
  6
Continuous
 62
     7
370
    25
100
AcDbCircle
 10
4801.29420864522
 20
3527.096446589403
 30
0.0
 40
1.000003720955034
100
AcDbArc
 50
121.107004267412
 51
188.6583185908508
  0
ARC
  5
2C1
330
1F
100
AcDbEntity
  8
0
  6
Continuous
 62
     7
370
    25
100
AcDbCircle
 10
4801.260745698467
 20
3527.077126859532
 30
0.0
 40
1.000003627330547
100
AcDbArc
 50
51.34167627089658
 51
118.8929871118646
  0
ARC
  5
2C2
330
1F
100
AcDbEntity
  8
0
  6
Continuous
 62
     7
370
    25
100
AcDbCircle
 10
4802.263687985291
 20
3528.330871309558
 30
0.0
 40
0.6055393888090715
100
AcDbArc
 50
231.3416762709471
 51
5.560253820383372
  0
ARC
  5
2C3
330
1F
100
AcDbEntity
  8
0
  6
Continuous
 62
     7
370
    25
100
AcDbCircle
 10
4803.861676562194
 20
3528.486436350651
 30
0.0
 40
1.000003501904044
100
AcDbArc
 50
48.20260737939291
 51
185.5602538204264
  0
ARC
  5
2C4
330
1F
100
AcDbEntity
  8
0
  6
Continuous
 62
     7
370
    25
100
AcDbCircle
 10
4804.931768562656
 20
3529.683378740434
 30
0.0
 40
0.605539388809513
100
AcDbArc
 50
228.2026073793974
 51
2.421186022462848
  0
ARC
  5
2C5
330
1F
100
AcDbEntity
  8
0
  6
Continuous
 62
     7
370
    25
100
AcDbCircle
 10
4806.535878149282
 20
3529.751205048136
 30
0.0
 40
1.000003501904592
100
AcDbArc
 50
45.06353958142958
 51
182.4211860224214
  0
ARC
  5
2C6
330
1F
100
AcDbEntity
  8
0
  6
Continuous
 62
     7
370
    25
100
AcDbCircle
 10
4807.669908708533
 20
3530.887753623693
 30
0.0
 40
0.6055393888091106
100
AcDbArc
 50
225.0635395815025
 51
359.2821143391299
  0
ARC
  5
2C7
330
1F
100
AcDbEntity
  8
0
  6
Continuous
 62
     7
370
    25
100
AcDbCircle
 10
4809.275325500749
 20
3530.867637552002
 30
0.0
 40
1.000003426897942
100
AcDbArc
 50
41.92447436458409
 51
179.2821143391813
  0
ARC
  5
2C8
330
1F
100
AcDbEntity
  8
0
  6
Continuous
 62
     7
370
    25
100
AcDbCircle
 10
4810.469891509812
 20
3531.940381748203
 30
0.0
 40
0.6055394907766118
100
AcDbArc
 50
221.9244743645705
 51
356.1430480776268
  0
ARC
  5
2C9
330
1F
100
AcDbEntity
  8
0
  6
Continuous
 62
     7
370
    25
100
AcDbCircle
 10
4812.071798032064
 20
3531.83238381092
 30
0.0
 40
1.00000342689744
100
AcDbArc
 50
38.78540656666177
 51
176.1430480775647
  0
ARC
  5
2CA
330
1F
100
AcDbEntity
  8
0
  6
Continuous
 62
     7
370
    25
100
AcDbCircle
 10
4813.323314783238
 20
3532.838104389422
 30
0.0
 40
0.6055394907761688
100
AcDbArc
 50
218.785406566708
 51
353.003980279647
  0
ARC
  5
2CB
330
1F
100
AcDbEntity
  8
0
  6
Continuous
 62
     7
370
    25
100
AcDbCircle
 10
4814.916903816375
 20
3532.642548632776
 30
0.0
 40
1.000003426897914
100
AcDbArc
 50
35.64633876868047
 51
173.0039802796096
  0
ARC
  5
2CC
330
1F
100
AcDbEntity
  8
0
  6
Continuous
 62
     7
370
    25
100
AcDbCircle
 10
4816.221615667911
 20
3533.578227554712
 30
0.0
 40
0.6055394907769066
100
AcDbArc
 50
215.6463387686225
 51
349.8649124816391
  0
ARC
  5
2CD
330
1F
100
AcDbEntity
  8
0
  6
Continuous
 62
     7
370
    25
100
AcDbCircle
 10
4817.802105055001
 20
3533.295700816525
 30
0.0
 40
1.000003426897661
100
AcDbArc
 50
32.50727439407544
 51
169.8649124816414
  0
ARC
  5
2CE
330
1F
100
AcDbEntity
  8
0
  6
Continuous
 62
     7
370
    25
100
AcDbCircle
 10
4819.156096681896
 20
3534.158530309986
 30
0.0
 40
0.6055394907758328
100
AcDbArc
 50
212.5072743940627
 51
285.0400897605157
  0
LINE
  5
2CF
330
1F
100
AcDbEntity
  8
0
  6
Continuous
 62
     7
370
    25
100
AcDbLine
 10
4819.790529071202
 20
3533.573733880503
 30
0.0
 11
4819.31323105418
 21
3533.573733880503
 31
0.0
  0
ARC
  5
2D0
330
1F
100
AcDbEntity
  8
0
  6
Continuous
 62
     7
370
    25
100
AcDbCircle
 10
4819.790529071202
 20
3533.073733880503
 30
0.0
 40
0.5
100
AcDbArc
 50
32.86066548916859
 51
90.0
  0
ARC
  5
2D1
330
1F
100
AcDbEntity
  8
0
  6
Continuous
 62
     7
370
    25
100
AcDbCircle
 10
4864.785832523267
 20
3520.111429277553
 30
0.0
 40
1.000003426897752
100
AcDbArc
 50
338.7854065666568
 51
116.1430480775992
  0
ARC
  5
2D2
330
1F
100
AcDbEntity
  8
0
  6
Continuous
 62
     7
370
    25
100
AcDbCircle
 10
4864.078408219385
 20
3521.552719988953
 30
0.0
 40
0.6055394907758226
100
AcDbArc
 50
161.9244743646322
 51
296.1430480775346
  0
ARC
  5
2D3
330
1F
100
AcDbEntity
  8
0
  6
Continuous
 62
     7
370
    25
100
AcDbCircle
 10
4862.552101489181
 20
3522.050872401198
 30
0.0
 40
1.000003426897894
100
AcDbArc
 50
341.9244743646076
 51
119.282115875537
  0
ARC
  5
2D4
330
1F
100
AcDbEntity
  8
0
  6
Continuous
 62
     7
370
    25
100
AcDbCircle
 10
4861.766814034758
 20
3523.451262230643
 30
0.0
 40
0.6055394907763594
100
AcDbArc
 50
165.063542162544
 51
299.282115875606
  0
ARC
  5
2D5
330
1F
100
AcDbEntity
  8
0
  6
Continuous
 62
     7
370
    25
100
AcDbCircle
 10
4860.215518771372
 20
3523.86508715291
 30
0.0
 40
1.000003426897732
100
AcDbArc
 50
345.0635421625889
 51
122.4211821371504
  0
ARC
  5
2D6
330
1F
100
AcDbEntity
  8
0
  6
Continuous
 62
     7
370
    25
100
AcDbCircle
 10
4859.35472480466
 20
3525.220373646586
 30
0.0
 40
0.605539388808713
100
AcDbArc
 50
168.2026084729133
 51
302.4211821372388
  0
ARC
  5
2D7
330
1F
100
AcDbEntity
  8
0
  6
Continuous
 62
     7
370
    25
100
AcDbCircle
 10
4857.78309615897
 20
3525.54862930413
 30
0.0
 40
1.000003627329257
100
AcDbArc
 50
348.2026084729012
 51
125.560251467478
  0
ARC
  5
2D8
330
1F
100
AcDbEntity
  8
0
  6
Continuous
 62
     7
370
    25
100
AcDbCircle
 10
4856.849378630951
 20
3526.854745546414
 30
0.0
 40
0.6055392903449781
100
AcDbArc
 50
171.3416777545351
 51
305.5602514675686
  0
ARC
  5
2D9
330
1F
100
AcDbEntity
  8
0
  6
Continuous
 62
     7
370
    25
100
AcDbCircle
 10
4855.262133035046
 20
3527.096446764397
 30
0.0
 40
1.00000362733061
100
AcDbArc
 50
351.3416777545521
 51
58.89298711212282
  0
ARC
  5
2DA
330
1F
100
AcDbEntity
  8
0
  6
Continuous
 62
     7
370
    25
100
AcDbCircle
 10
4855.295595885284
 20
3527.077126867359
 30
0.0
 40
1.000003720956101
100
AcDbArc
 50
61.10700426759708
 51
128.6583186436137
  0
ARC
  5
2DB
330
1F
100
AcDbEntity
  8
0
  6
Continuous
 62
     7
370
    25
100
AcDbCircle
 10
4854.292653772084
 20
3528.33087132847
 30
0.0
 40
0.6055391953807032
100
AcDbArc
 50
174.4397515219498
 51
308.6583186435735
  0
ARC
  5
2DC
330
1F
100
AcDbEntity
  8
0
  6
Continuous
 62
     7
370
    25
100
AcDbCircle
 10
4852.694665153844
 20
3528.486436223175
 30
0.0
 40
1.000003722292488
100
AcDbArc
 50
354.4397515219371
 51
131.7973862534699
  0
ARC
  5
2DD
330
1F
100
AcDbEntity
  8
0
  6
Continuous
 62
     7
370
    25
100
AcDbCircle
 10
4851.624573268424
 20
3529.683378751975
 30
0.0
 40
0.605539195381332
100
AcDbArc
 50
177.5788193200911
 51
311.7973862534348
  0
ARC
  5
2DE
330
1F
100
AcDbEntity
  8
0
  6
Continuous
 62
     7
370
    25
100
AcDbCircle
 10
4850.020463648538
 20
3529.751204911241
 30
0.0
 40
1.000003722292464
100
AcDbArc
 50
357.5788193201263
 51
134.9364540511625
  0
ARC
  5
2DF
330
1F
100
AcDbEntity
  8
0
  6
Continuous
 62
     7
370
    25
100
AcDbCircle
 10
4848.886433196549
 20
3530.887753631911
 30
0.0
 40
0.6055391953820589
100
AcDbArc
 50
180.7178842445084
 51
314.9364540511671
  0
ARC
  5
2E0
330
1F
100
AcDbEntity
  8
0
  6
Continuous
 62
     7
370
    25
100
AcDbCircle
 10
4847.281016301878
 20
3530.867637598626
 30
0.0
 40
1.000003722292411
100
AcDbArc
 50
0.7178842445741469
 51
138.0755257531038
  0
ARC
  5
2E1
330
1F
100
AcDbEntity
  8
0
  6
Continuous
 62
     7
370
    25
100
AcDbCircle
 10
4846.086450290734
 20
3531.940381792266
 30
0.0
 40
0.6055391952195882
100
AcDbArc
 50
183.8569520523687
 51
318.0755257530005
  0
ARC
  5
2E2
330
1F
100
AcDbEntity
  8
0
  6
Continuous
 62
     7
370
    25
100
AcDbCircle
 10
4844.484543769446
 20
3531.832383851397
 30
0.0
 40
1.000003721732729
100
AcDbArc
 50
3.856952052387162
 51
141.2146910882384
  0
ARC
  5
2E3
330
1F
100
AcDbEntity
  8
0
  6
Continuous
 62
     7
370
    25
100
AcDbCircle
 10
4843.233026203518
 20
3532.838101574061
 30
0.0
 40
0.6055380421300973
100
AcDbArc
 50
186.9959222963412
 51
321.2146910882735
  0
ARC
  5
2E4
330
1F
100
AcDbEntity
  8
0
  6
Continuous
 62
     7
370
    25
100
AcDbCircle
 10
4841.639437982531
 20
3532.642548667572
 30
0.0
 40
1.000003722292677
100
AcDbArc
 50
6.995922296285673
 51
144.3536612986912
  0
ARC
  5
2E5
330
1F
100
AcDbEntity
  8
0
  6
Continuous
 62
     7
370
    25
100
AcDbCircle
 10
4840.334726132742
 20
3533.578227585933
 30
0.0
 40
0.6055391918792259
100
AcDbArc
 50
190.1350890059634
 51
324.3536612986792
  0
ARC
  5
2E6
330
1F
100
AcDbEntity
  8
0
  6
Continuous
 62
     7
370
    25
100
AcDbCircle
 10
4838.754236849917
 20
3533.295700824037
 30
0.0
 40
1.000003627330184
100
AcDbArc
 50
10.13508900598239
 51
147.4968951246652
  0
ARC
  5
2E7
330
1F
100
AcDbEntity
  8
0
  6
Continuous
 62
     7
370
    25
100
AcDbCircle
 10
4837.400183322075
 20
3534.158431218796
 30
0.0
 40
0.6055382407946343
100
AcDbArc
 50
254.9242628569134
 51
327.4968951245384
  0
LINE
  5
2E8
330
1F
100
AcDbEntity
  8
0
  6
Continuous
 62
     7
370
    25
100
AcDbLine
 10
4837.242685465942
 20
3533.573733872832
 30
0.0
 11
4836.765812837402
 21
3533.573733872832
 31
0.0
  0
ARC
  5
2E9
330
1F
100
AcDbEntity
  8
0
  6
Continuous
 62
     7
370
    25
100
AcDbCircle
 10
4836.765812837402
 20
3533.073733872832
 30
0.0
 40
0.5000000000004801
100
AcDbArc
 50
90.0
 51
147.1393335589868
  0
ARC
  5
2EA
330
1F
100
AcDbEntity
  8
0
  6
Continuous
 62
     7
370
    25
100
AcDbCircle
 10
4828.278170954283
 20
3480.320213402305
 30
0.0
 40
60.00000000000031
100
AcDbArc
 50
288.4076588571879
 51
246.4435356909004
  0
ARC
  5
2EB
330
1F
100
AcDbEntity
  8
0
  6
Continuous
 62
     7
370
    25
100
AcDbCircle
 10
3458.278170954284
 20
3347.122628463229
 30
0.0
 40
1500.0
100
AcDbArc
 50
180.0
 51
241.6000000000007
  0
ARC
  5
2EC
330
1F
100
AcDbEntity
  8
0
  6
Continuous
 62
     7
370
    25
100
AcDbCircle
 10
3458.278170954284
 20
3585.320213402305
 30
0.0
 40
1500.0
100
AcDbArc
 50
90.0
 51
180.0
  0
LINE
  5
2ED
330
1F
100
AcDbEntity
  8
0
  6
Continuous
 62
     7
370
    25
100
AcDbLine
 10
3872.918559325113
 20
5085.320213402305
 30
0.0
 11
3458.278170954284
 21
5085.320213402305
 31
0.0
  0
LINE
  5
2EE
330
1F
100
AcDbEntity
  8
0
  6
Continuous
 62
     7
370
    25
100
AcDbLine
 10
4260.561385636702
 20
5020.451051455632
 30
0.0
 11
3872.918559325113
 21
5085.320213402305
 31
0.0
  0
LINE
  5
2EF
330
1F
100
AcDbEntity
  8
0
  6
Continuous
 62
     7
370
    25
100
AcDbLine
 10
4883.278170954284
 20
5020.451051455632
 30
0.0
 11
4260.561385636702
 21
5020.451051455632
 31
0.0
  0
ARC
  5
2F0
330
1F
100
AcDbEntity
  8
0
  6
Continuous
 62
     7
370
    25
100
AcDbCircle
 10
4883.278170954284
 20
3520.451051455631
 30
0.0
 40
1500.0
100
AcDbArc
 50
0.0
 51
90.0
  0
LINE
  5
2F1
330
1F
100
AcDbEntity
  8
0
  6
Continuous
 62
     7
370
    25
100
AcDbLine
 10
6383.278170954284
 20
3321.644194013507
 30
0.0
 11
6383.278170954284
 21
3520.451051455631
 31
0.0
  0
ARC
  5
2F2
330
1F
100
AcDbEntity
  8
0
  6
Continuous
 62
     7
370
    25
100
AcDbCircle
 10
4883.278170954284
 20
3321.644194013507
 30
0.0
 40
1500.0
100
AcDbArc
 50
276.6000000000009
 51
0.0
  0
LINE
  5
2F3
330
1F
100
AcDbEntity
  8
0
  6
Continuous
 62
     7
370
    25
100
AcDbLine
 10
3607.474666794418
 20
1664.021520654105
 30
0.0
 11
5055.683896693585
 21
1831.585045612911
 31
0.0
  0
ARC
  5
2F4
330
1F
100
AcDbEntity
  8
0
  6
Continuous
 62
     7
370
    25
100
AcDbCircle
 10
3550.006091547984
 20
2160.707903454303
 30
0.0
 40
499.9999999999998
100
AcDbArc
 50
241.6000000000007
 51
276.6000000000009
  0
LINE
  5
2F5
330
1F
100
AcDbEntity
  8
0
  6
Continuous
 62
     7
370
    25
100
AcDbLine
 10
2744.84185734887
 20
2027.649769163304
 30
0.0
 11
3312.193987012846
 21
1720.883617020995
 31
0.0
  0
LINE
  5
2F6
330
1F
100
AcDbEntity
  8
0
  6
Continuous
 62
     7
370
    25
100
AcDbLine
 10
1958.278170954283
 20
3585.320213402305
 30
0.0
 11
1958.278170954283
 21
3347.122628463229
 31
0.0
  0
LINE
  5
2F7
330
1F
100
AcDbEntity
  8
0
  6
Continuous
 62
     7
370
    25
100
AcDbLine
 10
3573.356747524878
 20
3486.320213402306
 30
0.0
 11
3573.356747524878
 21
3480.69273674157
 31
0.0
  0
LINE
  5
2F8
330
1F
100
AcDbEntity
  8
0
  6
Continuous
 62
     7
370
    25
100
AcDbLine
 10
4768.856747524877
 20
3483.320213402305
 30
0.0
 11
4768.856747524877
 21
3477.320213402304
 31
0.0
  0
LINE
  5
2F9
330
1F
100
AcDbEntity
  8
0
  6
Continuous
 62
     7
370
    25
100
AcDbLine
 10
4772.356747524878
 20
3486.320213402305
 30
0.0
 11
4772.356747524878
 21
3474.320213402305
 31
0.0
  0
LINE
  5
2FA
330
1F
100
AcDbEntity
  8
0
  6
Continuous
 62
     7
370
    25
100
AcDbLine
 10
4773.356747524878
 20
3486.320213402305
 30
0.0
 11
4773.356747524878
 21
3480.69273674157
 31
0.0
  0
LINE
  5
2FB
330
1F
100
AcDbEntity
  8
0
  6
Continuous
 62
     7
370
    25
100
AcDbLine
 10
4773.356747524878
 20
3479.947690068574
 30
0.0
 11
4773.356747524878
 21
3474.320213402305
 31
0.0
  0
LINE
  5
2FC
330
1F
100
AcDbEntity
  8
0
  6
Continuous
 62
     7
370
    25
100
AcDbLine
 10
3630.38693690634
 20
3472.015569119653
 30
0.0
 11
3629.481069717486
 21
3472.015569119653
 31
0.0
  0
SPLINE
  5
2FD
330
1F
100
AcDbEntity
  8
0
  6
Continuous
 62
     7
370
    25
100
AcDbSpline
210
0.0
220
0.0
230
1.0
 70
     8
 71
     3
 72
    23
 73
    19
 74
     0
 42
0.00000001
 43
0.0000000001
 40
0.0
 40
0.0
 40
0.0
 40
0.0
 40
0.0625003191969384
 40
0.1249992395012204
 40
0.1874915822001338
 40
0.2499816454423843
 40
0.3124735293962522
 40
0.3749692624755323
 40
0.4374687162947477
 40
0.4999702749476296
 40
0.5624712575477959
 40
0.6249684953152079
 40
0.6874594909352322
 40
0.7499436725622557
 40
0.8124228766245026
 40
0.8749006420425466
 40
0.9373807521372141
 40
1.0
 40
1.0
 40
1.0
 40
1.0
 10
3630.289878014423
 20
3467.246244751652
 30
0.0
 10
3630.621607676794
 20
3466.5590124256
 30
0.0
 10
3631.285059576708
 20
3465.184563155247
 30
0.0
 10
3633.089542497268
 20
3463.704042162514
 30
0.0
 10
3635.247244548998
 20
3462.886773727162
 30
0.0
 10
3637.573382586734
 20
3462.858981904111
 30
0.0
 10
3639.77246952324
 20
3463.624165061775
 30
0.0
 10
3641.581330679969
 20
3465.095395768265
 30
0.0
 10
3642.778487091185
 20
3467.092657682409
 30
0.0
 10
3643.223543144718
 20
3469.371907960207
 30
0.0
 10
3642.870134206309
 20
3471.660245099724
 30
0.0
 10
3641.765490677181
 20
3473.690354966919
 30
0.0
 10
3640.039268359287
 20
3475.227832759587
 30
0.0
 10
3637.89156348139
 20
3476.091853159849
 30
0.0
 10
3635.567495648821
 20
3476.177527315519
 30
0.0
 10
3633.361895669031
 20
3475.460840380478
 30
0.0
 10
3631.475112828841
 20
3474.050160562618
 30
0.0
 10
3630.749931067263
 20
3472.694268949698
 30
0.0
 10
3630.38693690634
 20
3472.015569119653
 30
0.0
  0
LINE
  5
2FE
330
1F
100
AcDbEntity
  8
0
  6
Continuous
 62
     7
370
    25
100
AcDbLine
 10
3629.481071690133
 20
3467.246244751652
 30
0.0
 11
3630.289878014423
 21
3467.246244751652
 31
0.0
  0
LINE
  5
2FF
330
1F
100
AcDbEntity
  8
0
  6
Continuous
 62
     7
370
    25
100
AcDbLine
 10
3629.481091671535
 20
3459.831075841282
 30
0.0
 11
3629.481071690133
 21
3467.246244751652
 31
0.0
  0
SPLINE
  5
300
330
1F
100
AcDbEntity
  8
0
  6
Continuous
 62
     7
370
    25
100
AcDbSpline
210
0.0
220
0.0
230
1.0
 70
     8
 71
     3
 72
    17
 73
    13
 74
     0
 42
0.00000001
 43
0.0000000001
 40
0.0
 40
0.0
 40
0.0
 40
0.0
 40
0.1249061524968284
 40
0.249678629691869
 40
0.3743660091349118
 40
0.4370653111842058
 40
0.499682792264676
 40
0.5625511765384598
 40
0.6250869909965232
 40
0.7500288320175012
 40
0.8749615078987286
 40
1.0
 40
1.0
 40
1.0
 40
1.0
 10
3621.816551912699
 20
3459.831065514595
 30
0.0
 10
3621.873104401161
 20
3459.333468466677
 30
0.0
 10
3621.98614885528
 20
3458.33880690214
 30
0.0
 10
3622.863273348079
 20
3457.061931614763
 30
0.0
 10
3623.925526249433
 20
3456.342404734382
 30
0.0
 10
3624.895555277067
 20
3456.048103256639
 30
0.0
 10
3625.655379400992
 20
3455.973532359575
 30
0.0
 10
3626.413587944959
 20
3456.050470912745
 30
0.0
 10
3627.381295945845
 20
3456.347318479294
 30
0.0
 10
3628.437447875213
 20
3457.06620607869
 30
0.0
 10
3629.311143230012
 20
3458.338793154
 30
0.0
 10
3629.424426206281
 20
3459.333507920059
 30
0.0
 10
3629.481091671535
 20
3459.831075841282
 30
0.0
  0
LINE
  5
301
330
1F
100
AcDbEntity
  8
0
  6
Continuous
 62
     7
370
    25
100
AcDbLine
 10
3621.816551912699
 20
3463.968736687686
 30
0.0
 11
3621.816551912699
 21
3459.831065514595
 31
0.0
  0
LINE
  5
302
330
1F
100
AcDbEntity
  8
0
  6
Continuous
 62
     7
370
    25
100
AcDbLine
 10
3613.031481702919
 20
3461.488812707459
 30
0.0
 11
3621.816551912699
 21
3463.968736687686
 31
0.0
  0
SPLINE
  5
303
330
1F
100
AcDbEntity
  8
0
  6
Continuous
 62
     7
370
    25
100
AcDbSpline
210
0.0
220
0.0
230
1.0
 70
     8
 71
     3
 72
    15
 73
    11
 74
     0
 42
0.00000001
 43
0.0000000001
 40
0.0
 40
0.0
 40
0.0
 40
0.0
 40
0.1247773356245442
 40
0.249910920188191
 40
0.3748045497466478
 40
0.4994468935588343
 40
0.6245553885321455
 40
0.7496276866824175
 40
0.8742818465247385
 40
1.0
 40
1.0
 40
1.0
 40
1.0
 10
3607.877870315263
 20
3465.389028679223
 30
0.0
 10
3607.898476246572
 20
3465.078775419157
 30
0.0
 10
3607.939746940716
 20
3464.457383101983
 30
0.0
 10
3608.271123334024
 20
3463.569441554522
 30
0.0
 10
3608.78377744601
 20
3462.776960764382
 30
0.0
 10
3609.46898939869
 20
3462.124113345491
 30
0.0
 10
3610.284027800381
 20
3461.645600940521
 30
0.0
 10
3611.182553272592
 20
3461.371809939012
 30
0.0
 10
3612.121615982116
 20
3461.295969794801
 30
0.0
 10
3612.727335098765
 20
3461.424349879945
 30
0.0
 10
3613.031481702919
 20
3461.488812707459
 30
0.0
  0
LINE
  5
304
330
1F
100
AcDbEntity
  8
0
  6
Continuous
 62
     7
370
    25
100
AcDbLine
 10
3607.877885905242
 20
3473.637126850203
 30
0.0
 11
3607.877870315263
 21
3465.389028679223
 31
0.0
  0
SPLINE
  5
305
330
1F
100
AcDbEntity
  8
0
  6
Continuous
 62
     7
370
    25
100
AcDbSpline
210
0.0
220
0.0
230
1.0
 70
     8
 71
     3
 72
    15
 73
    11
 74
     0
 42
0.00000001
 43
0.0000000001
 40
0.0
 40
0.0
 40
0.0
 40
0.0
 40
0.1248092052884251
 40
0.2500200305024954
 40
0.3748296300498484
 40
0.4996557033763065
 40
0.6248576448480087
 40
0.7495966213471213
 40
0.8744401508654169
 40
1.0
 40
1.0
 40
1.0
 40
1.0
 10
3612.632995184146
 20
3477.356618283261
 30
0.0
 10
3612.34767739252
 20
3477.407809940675
 30
0.0
 10
3611.77612369341
 20
3477.510357983655
 30
0.0
 10
3610.905882140414
 20
3477.415342485681
 30
0.0
 10
3610.080631705837
 20
3477.142267564252
 30
0.0
 10
3609.337197940914
 20
3476.687713605605
 30
0.0
 10
3608.712629512737
 20
3476.078137616242
 30
0.0
 10
3608.243486449057
 20
3475.341781289584
 30
0.0
 10
3607.936361041251
 20
3474.514842782974
 30
0.0
 10
3607.897414754642
 20
3473.930256262753
 30
0.0
 10
3607.877885905242
 20
3473.637126850203
 30
0.0
  0
LINE
  5
306
330
1F
100
AcDbEntity
  8
0
  6
Continuous
 62
     7
370
    25
100
AcDbLine
 10
3621.816552515129
 20
3475.078101983643
 30
0.0
 11
3612.632995184146
 21
3477.356618283261
 31
0.0
  0
LINE
  5
307
330
1F
100
AcDbEntity
  8
0
  6
Continuous
 62
     7
370
    25
100
AcDbLine
 10
3621.816546497906
 20
3478.624663371186
 30
0.0
 11
3621.816552515129
 21
3475.078101983643
 31
0.0
  0
LINE
  5
308
330
1F
100
AcDbEntity
  8
0
  6
Continuous
 62
     7
370
    25
100
AcDbLine
 10
3629.481069717486
 20
3472.015569119653
 30
0.0
 11
3629.481069717486
 21
3478.624664180465
 31
0.0
  0
SPLINE
  5
309
330
1F
100
AcDbEntity
  8
0
  6
Continuous
 62
     7
370
    25
100
AcDbSpline
210
0.0
220
0.0
230
1.0
 70
     8
 71
     3
 72
    15
 73
    11
 74
     0
 42
0.00000001
 43
0.0000000001
 40
0.0
 40
0.0
 40
0.0
 40
0.0
 40
0.125056134112704
 40
0.2500003936702475
 40
0.3748900573607818
 40
0.4997798413595573
 40
0.6247233892275612
 40
0.7497749289989939
 40
0.8748360603251894
 40
1.0
 40
1.0
 40
1.0
 40
1.0
 10
3629.481069717486
 20
3478.624664180465
 30
0.0
 10
3629.424361576286
 20
3479.127382113229
 30
0.0
 10
3629.310996024687
 20
3480.132368249957
 30
0.0
 10
3628.425031962319
 20
3481.410923427546
 30
0.0
 10
3627.157913375206
 20
3482.265037240392
 30
0.0
 10
3625.650541179205
 20
3482.565425252055
 30
0.0
 10
3624.142465570991
 20
3482.266311232916
 30
0.0
 10
3622.874073381616
 20
3481.412593540913
 30
0.0
 10
3621.986925034504
 20
3480.13357090015
 30
0.0
 10
3621.87335489738
 20
3479.127770296427
 30
0.0
 10
3621.816546497906
 20
3478.624663371186
 30
0.0
  0
SPLINE
  5
30A
330
1F
100
AcDbEntity
  8
0
  6
Continuous
 62
     7
370
    25
100
AcDbSpline
210
0.0
220
0.0
230
1.0
 70
     8
 71
     3
 72
    15
 73
    11
 74
     0
 42
0.00000001
 43
0.0000000001
 40
0.0
 40
0.0
 40
0.0
 40
0.0
 40
0.1250110191706799
 40
0.2499923088620011
 40
0.3749481991945407
 40
0.4998837854148304
 40
0.6248043937384753
 40
0.749715500984345
 40
0.8746227357774802
 40
1.0
 40
1.0
 40
1.0
 40
1.0
 10
3620.579348264518
 20
3479.879703765246
 30
0.0
 10
3620.795731462725
 20
3480.475942590757
 30
0.0
 10
3621.228446399997
 20
3481.668278447319
 30
0.0
 10
3622.627424363896
 20
3483.017492773508
 30
0.0
 10
3624.371074032908
 20
3483.808190436883
 30
0.0
 10
3626.292063390535
 20
3483.923300367995
 30
0.0
 10
3628.129798246359
 20
3483.351897513609
 30
0.0
 10
3629.633633299595
 20
3482.166904233037
 30
0.0
 10
3630.670274767017
 20
3480.520286481071
 30
0.0
 10
3630.804277546591
 20
3479.25712445206
 30
0.0
 10
3630.871404763687
 20
3478.624357340672
 30
0.0
  0
LINE
  5
30B
330
1F
100
AcDbEntity
  8
0
  6
Continuous
 62
     7
370
    25
100
AcDbLine
 10
3630.859490978958
 20
3478.632148409868
 30
0.0
 11
3630.871404763687
 21
3478.624357340672
 31
0.0
  0
SPLINE
  5
30C
330
1F
100
AcDbEntity
  8
0
  6
Continuous
 62
     7
370
    25
100
AcDbSpline
210
0.0
220
0.0
230
1.0
 70
     8
 71
     3
 72
    15
 73
    11
 74
     0
 42
0.00000001
 43
0.0000000001
 40
0.0
 40
0.0
 40
0.0
 40
0.0
 40
0.125011019170682
 40
0.2499923088620036
 40
0.374948199194539
 40
0.4998837854148256
 40
0.6248043937384756
 40
0.749715500984344
 40
0.8746227357774813
 40
1.0
 40
1.0
 40
1.0
 40
1.0
 10
3620.614718047166
 20
3479.88172754612
 30
0.0
 10
3620.830107141859
 20
3480.475227142724
 30
0.0
 10
3621.260834108517
 20
3481.662085192902
 30
0.0
 10
3622.653384914847
 20
3483.005100984666
 30
0.0
 10
3624.389023942195
 20
3483.792166040093
 30
0.0
 10
3626.301187927581
 20
3483.906747135381
 30
0.0
 10
3628.130479897391
 20
3483.337969408963
 30
0.0
 10
3629.627406060643
 20
3482.158420201655
 30
0.0
 10
3630.659285009838
 20
3480.519367309194
 30
0.0
 10
3630.792672156427
 20
3479.262008474802
 30
0.0
 10
3630.859490978958
 20
3478.632148409868
 30
0.0
  0
LINE
  5
30D
330
1F
100
AcDbEntity
  8
0
  6
Continuous
 62
     7
370
    25
100
AcDbLine
 10
3620.614718047166
 20
3479.88172754612
 30
0.0
 11
3620.579348264518
 21
3479.879703765246
 31
0.0
  0
LINE
  5
30E
330
1F
100
AcDbEntity
  8
0
  6
Continuous
 62
     7
370
    25
100
AcDbLine
 10
3630.871404763687
 20
3478.624357340672
 30
0.0
 11
3630.871404763687
 21
3478.296474659262
 31
0.0
  0
LINE
  5
30F
330
1F
100
AcDbEntity
  8
0
  6
Continuous
 62
     7
370
    25
100
AcDbLine
 10
3617.092450698891
 20
3478.702028454732
 30
0.0
 11
3620.579348264518
 21
3479.879703765246
 31
0.0
  0
SPLINE
  5
310
330
1F
100
AcDbEntity
  8
0
  6
Continuous
 62
     7
370
    25
100
AcDbSpline
210
0.0
220
0.0
230
1.0
 70
     8
 71
     3
 72
    15
 73
    11
 74
     0
 42
0.00000001
 43
0.0000000001
 40
0.0
 40
0.0
 40
0.0
 40
0.0
 40
0.1251138268299315
 40
0.2501265539733843
 40
0.375087334371634
 40
0.5000391562833988
 40
0.6250183215381521
 40
0.750048341267876
 40
0.8751416046849529
 40
1.0
 40
1.0
 40
1.0
 40
1.0
 10
3614.348806477879
 20
3485.85188221166
 30
0.0
 10
3613.921662735182
 20
3485.608300181708
 30
0.0
 10
3613.067720408273
 20
3485.121332951106
 30
0.0
 10
3612.247746195767
 20
3483.847534788423
 30
0.0
 10
3611.938377417566
 20
3482.388435111385
 30
0.0
 10
3612.204457830336
 20
3480.91359688795
 30
0.0
 10
3613.000009344947
 20
3479.647751349915
 30
0.0
 10
3614.203597093809
 20
3478.781250758383
 30
0.0
 10
3615.656079427059
 20
3478.388796172568
 30
0.0
 10
3616.613960300512
 20
3478.597683121171
 30
0.0
 10
3617.092450698891
 20
3478.702028454732
 30
0.0
  0
LINE
  5
311
330
1F
100
AcDbEntity
  8
0
  6
Continuous
 62
     7
370
    25
100
AcDbLine
 10
3620.473909768364
 20
3488.492938013688
 30
0.0
 11
3614.348806477879
 21
3485.85188221166
 31
0.0
  0
LINE
  5
312
330
1F
100
AcDbEntity
  8
0
  6
Continuous
 62
     7
370
    25
100
AcDbLine
 10
3614.994529560099
 20
3490.179096935661
 30
0.0
 11
3620.473909768364
 21
3488.492938013688
 31
0.0
  0
SPLINE
  5
313
330
1F
100
AcDbEntity
  8
0
  6
Continuous
 62
     7
370
    25
100
AcDbSpline
210
0.0
220
0.0
230
1.0
 70
     8
 71
     3
 72
    16
 73
    12
 74
     0
 42
0.00000001
 43
0.0000000001
 40
0.0
 40
0.0
 40
0.0
 40
0.0
 40
0.1250073556817606
 40
0.2498629362156407
 40
0.3124759187237207
 40
0.3752928066555916
 40
0.5001279860581287
 40
0.6250716977549198
 40
0.7501365730611589
 40
0.875120703327752
 40
0.9999999999999998
 40
0.9999999999999998
 40
0.9999999999999998
 40
0.9999999999999998
 10
3617.248849607616
 20
3497.504629975881
 30
0.0
 10
3616.753004114583
 20
3497.598517845804
 30
0.0
 10
3615.761915149275
 20
3497.786179593592
 30
0.0
 10
3614.516304507671
 20
3497.388056011235
 30
0.0
 10
3613.67458755617
 20
3496.831028709781
 30
0.0
 10
3612.956569691551
 20
3496.115514577951
 30
0.0
 10
3612.348495927375
 20
3494.976666719344
 30
0.0
 10
3612.203073208579
 20
3493.444369199348
 30
0.0
 10
3612.653925174731
 20
3491.991266737122
 30
0.0
 10
3613.611457522984
 20
3490.781661755816
 30
0.0
 10
3614.533634518354
 20
3490.379895686909
 30
0.0
 10
3614.994529560099
 20
3490.179096935661
 30
0.0
  0
LINE
  5
314
330
1F
100
AcDbEntity
  8
0
  6
Continuous
 62
     7
370
    25
100
AcDbLine
 10
3628.146463173083
 20
3494.151090971278
 30
0.0
 11
3617.248849607616
 21
3497.504629975881
 31
0.0
  0
LINE
  5
315
330
1F
100
AcDbEntity
  8
0
  6
Continuous
 62
     7
370
    25
100
AcDbLine
 10
3628.146463173083
 20
3498.643239428381
 30
0.0
 11
3628.146463173083
 21
3494.151090971278
 31
0.0
  0
SPLINE
  5
316
330
1F
100
AcDbEntity
  8
0
  6
Continuous
 62
     7
370
    25
100
AcDbSpline
210
0.0
220
0.0
230
1.0
 70
     8
 71
     3
 72
    16
 73
    12
 74
     0
 42
0.00000001
 43
0.0000000001
 40
0.0
 40
0.0
 40
0.0
 40
0.0
 40
0.1249838834778556
 40
0.2498329083229487
 40
0.3746047917904259
 40
0.4373701836425782
 40
0.5000086427398893
 40
0.6248736735557259
 40
0.7498929506168241
 40
0.8748924664021894
 40
0.9999999999999998
 40
0.9999999999999998
 40
0.9999999999999998
 40
0.9999999999999998
 10
3635.722512588561
 20
3498.643239428381
 30
0.0
 10
3635.66636673365
 20
3499.136142671338
 30
0.0
 10
3635.554135605664
 20
3500.121417310623
 30
0.0
 10
3634.683980038984
 20
3501.384440056759
 30
0.0
 10
3633.6332300799
 20
3502.093895798079
 30
0.0
 10
3632.674994340964
 20
3502.383128999639
 30
0.0
 10
3631.680096927098
 20
3502.480518364907
 30
0.0
 10
3630.427955971437
 20
3502.228049735136
 30
0.0
 10
3629.181183383781
 20
3501.378363414868
 30
0.0
 10
3628.314962621465
 20
3500.120876936399
 30
0.0
 10
3628.20264582524
 20
3499.135927059845
 30
0.0
 10
3628.146463173083
 20
3498.643239428381
 30
0.0
  0
LINE
  5
317
330
1F
100
AcDbEntity
  8
0
  6
Continuous
 62
     7
370
    25
100
AcDbLine
 10
3635.722512588561
 20
3491.743462142875
 30
0.0
 11
3635.722512588561
 21
3498.643239428381
 31
0.0
  0
LINE
  5
318
330
1F
100
AcDbEntity
  8
0
  6
Continuous
 62
     7
370
    25
100
AcDbLine
 10
3636.535390383155
 20
3491.743462142875
 30
0.0
 11
3635.722512588561
 21
3491.743462142875
 31
0.0
  0
SPLINE
  5
319
330
1F
100
AcDbEntity
  8
0
  6
Continuous
 62
     7
370
    25
100
AcDbSpline
210
0.0
220
0.0
230
1.0
 70
     8
 71
     3
 72
    23
 73
    19
 74
     0
 42
0.00000001
 43
0.0000000001
 40
0.0
 40
0.0
 40
0.0
 40
0.0
 40
0.0625068568156211
 40
0.1250136408172738
 40
0.187512397406942
 40
0.2499920711176761
 40
0.3124764642983236
 40
0.3749720143701909
 40
0.437478334764521
 40
0.4999928760679679
 40
0.5625133198497162
 40
0.6250393677120785
 40
0.687571740650988
 40
0.7501097323654582
 40
0.812649513171393
 40
0.8751837144314526
 40
0.9376956387521978
 40
1.0
 40
1.0
 40
1.0
 40
1.0
 10
3636.819616412521
 20
3483.944381695617
 30
0.0
 10
3637.299956531514
 20
3483.439651818996
 30
0.0
 10
3638.260636209952
 20
3482.430192653711
 30
0.0
 10
3640.200719985934
 20
3481.579873605247
 30
0.0
 10
3642.272181103218
 20
3481.333369148857
 30
0.0
 10
3644.320466346345
 20
3481.744778423609
 30
0.0
 10
3646.13945390219
 20
3482.761026168449
 30
0.0
 10
3647.560976907333
 20
3484.288959784984
 30
0.0
 10
3648.44614572084
 20
3486.185557658825
 30
0.0
 10
3648.703639071326
 20
3488.27068192793
 30
0.0
 10
3648.301130527082
 20
3490.339459744588
 30
0.0
 10
3647.274748043718
 20
3492.183287053904
 30
0.0
 10
3645.727818564297
 20
3493.615739405262
 30
0.0
 10
3643.819431119369
 20
3494.495152184816
 30
0.0
 10
3641.737449883639
 20
3494.742956490423
 30
0.0
 10
3639.697115018189
 20
3494.332804866853
 30
0.0
 10
3637.845855678898
 20
3493.342084016788
 30
0.0
 10
3636.971727605037
 20
3492.275745011845
 30
0.0
 10
3636.535390383155
 20
3491.743462142875
 30
0.0
  0
LINE
  5
31A
330
1F
100
AcDbEntity
  8
0
  6
Continuous
 62
     7
370
    25
100
AcDbLine
 10
3635.49457305098
 20
3483.94438069919
 30
0.0
 11
3636.819616412521
 21
3483.944381695618
 31
0.0
  0
LINE
  5
31B
330
1F
100
AcDbEntity
  8
0
  6
Continuous
 62
     7
370
    25
100
AcDbLine
 10
3635.494561863539
 20
3478.678609950583
 30
0.0
 11
3635.49457305098
 21
3483.94438069919
 31
0.0
  0
SPLINE
  5
31C
330
1F
100
AcDbEntity
  8
0
  6
Continuous
 62
     7
370
    25
100
AcDbSpline
210
0.0
220
0.0
230
1.0
 70
     8
 71
     3
 72
    11
 73
     7
 74
     0
 42
0.00000001
 43
0.0000000001
 40
0.0
 40
0.0
 40
0.0
 40
0.0
 40
0.249692436099233
 40
0.4994219562697238
 40
0.7491905203630916
 40
1.0
 40
1.0
 40
1.0
 40
1.0
 10
3634.224990563259
 20
3476.963094189914
 30
0.0
 10
3634.401855101101
 20
3477.0354899093
 30
0.0
 10
3634.75561044453
 20
3477.180292100211
 30
0.0
 10
3635.163404597744
 20
3477.594106402472
 30
0.0
 10
3635.441436232987
 20
3478.10546928654
 30
0.0
 10
3635.476828787942
 20
3478.487298400634
 30
0.0
 10
3635.494561863539
 20
3478.678609950583
 30
0.0
  0
LINE
  5
31D
330
1F
100
AcDbEntity
  8
0
  6
Continuous
 62
     7
370
    25
100
AcDbLine
 10
3633.381098921465
 20
3476.651658271909
 30
0.0
 11
3634.224990563259
 21
3476.963094189914
 31
0.0
  0
SPLINE
  5
31E
330
1F
100
AcDbEntity
  8
0
  6
Continuous
 62
     7
370
    25
100
AcDbSpline
210
0.0
220
0.0
230
1.0
 70
     8
 71
     3
 72
    15
 73
    11
 74
     0
 42
0.00000001
 43
0.0000000001
 40
0.0
 40
0.0
 40
0.0
 40
0.0
 40
0.124809548885059
 40
0.249940090870934
 40
0.3750289785020842
 40
0.4997493000649025
 40
0.6246701349542719
 40
0.7498228612261961
 40
0.8748537926432904
 40
1.0
 40
1.0
 40
1.0
 40
1.0
 10
3630.871404763687
 20
3478.296474659262
 30
0.0
 10
3630.882027416861
 20
3478.148543819768
 30
0.0
 10
3630.903300043221
 20
3477.852301682881
 30
0.0
 10
3631.072091584755
 20
3477.435026114419
 30
0.0
 10
3631.330245376363
 20
3477.070522091179
 30
0.0
 10
3631.671540661566
 20
3476.781128672778
 30
0.0
 10
3632.073028903334
 20
3476.583409323117
 30
0.0
 10
3632.510343312516
 20
3476.491985605099
 30
0.0
 10
3632.960538873332
 20
3476.503530475462
 30
0.0
 10
3633.240869182142
 20
3476.602267174552
 30
0.0
 10
3633.381098921465
 20
3476.651658271909
 30
0.0
  0
LINE
  5
31F
330
1F
100
AcDbEntity
  8
0
  6
Continuous
 62
     7
370
    25
100
AcDbLine
 10
3630.859490978958
 20
3478.305772080747
 30
0.0
 11
3630.871404763687
 21
3478.296474659262
 31
0.0
  0
LINE
  5
320
330
1F
100
AcDbEntity
  8
0
  6
Continuous
 62
     7
370
    25
100
AcDbLine
 10
3630.859490978958
 20
3478.632148409868
 30
0.0
 11
3630.859490978958
 21
3478.305772080747
 31
0.0
  0
SPLINE
  5
321
330
1F
100
AcDbEntity
  8
0
  6
Continuous
 62
     7
370
    25
100
AcDbSpline
210
0.0
220
0.0
230
1.0
 70
     8
 71
     3
 72
    11
 73
     7
 74
     0
 42
0.00000001
 43
0.0000000001
 40
0.0
 40
0.0
 40
0.0
 40
0.0
 40
0.3262818662696131
 40
0.6534028849032641
 40
0.980415009139587
 40
1.0
 40
1.0
 40
1.0
 40
1.0
 10
3630.859490978958
 20
3478.305772080747
 30
0.0
 10
3630.869635078902
 20
3478.158059677354
 30
0.0
 10
3630.889949368026
 20
3477.862254974456
 30
0.0
 10
3631.064432012118
 20
3477.453836002484
 30
0.0
 10
3631.224179338111
 20
3477.186337445826
 30
0.0
 10
3631.343724460219
 20
3477.086112213332
 30
0.0
 10
3631.350479536998
 20
3477.08044883595
 30
0.0
  0
LINE
  5
322
330
1F
100
AcDbEntity
  8
0
  6
Continuous
 62
     7
370
    25
100
AcDbLine
 10
3630.377248854494
 20
3472.053722156174
 30
0.0
 11
3630.38693690634
 21
3472.015569119653
 31
0.0
  0
SPLINE
  5
323
330
1F
100
AcDbEntity
  8
0
  6
Continuous
 62
     7
370
    25
100
AcDbSpline
210
0.0
220
0.0
230
1.0
 70
     8
 71
     3
 72
    13
 73
     9
 74
     0
 42
0.00000001
 43
0.0000000001
 40
0.0
 40
0.0
 40
0.0
 40
0.0
 40
0.0216458925438376
 40
0.2363524566586421
 40
0.4494753031934796
 40
0.6609847178209991
 40
0.8714214964836775
 40
1.0
 40
1.0
 40
1.0
 40
1.0
 10
3639.043541193009
 20
3475.556191922378
 30
0.0
 10
3638.980159235116
 20
3475.595742944813
 30
0.0
 10
3638.288088837663
 20
3476.027602305522
 30
0.0
 10
3636.660702291584
 20
3476.206146729466
 30
0.0
 10
3634.451203650177
 20
3475.955556000337
 30
0.0
 10
3632.452852152056
 20
3474.914569323171
 30
0.0
 10
3631.085341802181
 20
3473.516800654781
 30
0.0
 10
3630.571959593492
 20
3472.456038118516
 30
0.0
 10
3630.377248854494
 20
3472.053722156174
 30
0.0
  0
LINE
  5
324
330
1F
100
AcDbEntity
  8
0
  6
Continuous
 62
     7
370
    25
100
AcDbLine
 10
3617.143839919054
 20
3478.709462688794
 30
0.0
 11
3620.614718047166
 21
3479.88172754612
 31
0.0
  0
LINE
  5
325
330
1F
100
AcDbEntity
  8
0
  6
Continuous
 62
     7
370
    25
100
AcDbLine
 10
3617.143839919054
 20
3478.709462688794
 30
0.0
 11
3617.092450698891
 21
3478.702028454732
 31
0.0
  0
LINE
  5
326
330
1F
100
AcDbEntity
  8
0
  6
Continuous
 62
     7
370
    25
100
AcDbLine
 10
3636.780375468609
 20
3483.927731611576
 30
0.0
 11
3636.819616412521
 21
3483.944381695618
 31
0.0
  0
LINE
  5
327
330
1F
100
AcDbEntity
  8
0
  6
Continuous
 62
     7
370
    25
100
AcDbLine
 10
3635.461419595712
 20
3483.927730619725
 30
0.0
 11
3636.780375468609
 21
3483.927731611576
 31
0.0
  0
LINE
  5
328
330
1F
100
AcDbEntity
  8
0
  6
Continuous
 62
     7
370
    25
100
AcDbLine
 10
3612.704871948788
 20
3477.370233574773
 30
0.0
 11
3612.632995184146
 21
3477.356618283261
 31
0.0
  0
LINE
  5
329
330
1F
100
AcDbEntity
  8
0
  6
Continuous
 62
     7
370
    25
100
AcDbLine
 10
3621.846238357881
 20
3475.102185190773
 30
0.0
 11
3612.704871948788
 21
3477.370233574773
 31
0.0
  0
LINE
  5
32A
330
1F
100
AcDbEntity
  8
0
  6
Continuous
 62
     7
370
    25
100
AcDbLine
 10
3630.377248854494
 20
3472.053722156174
 30
0.0
 11
3629.475543383199
 21
3472.053722156174
 31
0.0
  0
SPLINE
  5
32B
330
1F
100
AcDbEntity
  8
0
  6
Continuous
 62
     7
370
    25
100
AcDbSpline
210
0.0
220
0.0
230
1.0
 70
     8
 71
     3
 72
    11
 73
     7
 74
     0
 42
0.00000001
 43
0.0000000001
 40
0.0
 40
0.0
 40
0.0
 40
0.0
 40
0.3211666732377601
 40
0.641249577754898
 40
0.9612249807881278
 40
0.9999999999999998
 40
0.9999999999999998
 40
0.9999999999999998
 40
0.9999999999999998
 10
3636.780375468609
 20
3483.927731611573
 30
0.0
 10
3637.260842950138
 20
3483.420405514171
 30
0.0
 10
3638.220156587976
 20
3482.407465278299
 30
0.0
 10
3640.146842177833
 20
3481.611615257782
 30
0.0
 10
3641.625409238237
 20
3481.307235483919
 30
0.0
 10
3642.373239580428
 20
3481.469447262877
 30
0.0
 10
3642.454067738634
 20
3481.486979687804
 30
0.0
  0
LINE
  5
32C
330
1F
100
AcDbEntity
  8
0
  6
Continuous
 62
     7
370
    25
100
AcDbLine
 10
3613.880179649034
 20
3490.764083966714
 30
0.0
 11
3615.055557009076
 21
3490.133803443165
 31
0.0
  0
LINE
  5
32D
330
1F
100
AcDbEntity
  8
0
  6
Continuous
 62
     7
370
    25
100
AcDbLine
 10
3615.055557009076
 20
3490.133803443165
 30
0.0
 11
3620.509763954518
 21
3488.455391039976
 31
0.0
  0
LINE
  5
32E
330
1F
100
AcDbEntity
  8
0
  6
Continuous
 62
     7
370
    25
100
AcDbLine
 10
3616.480760758435
 20
3478.619255375662
 30
0.0
 11
3617.143839919054
 21
3478.709462688794
 31
0.0
  0
LINE
  5
32F
330
1F
100
AcDbEntity
  8
0
  6
Continuous
 62
     7
370
    25
100
AcDbLine
 10
3612.704871948788
 20
3477.370233574773
 30
0.0
 11
3612.301755169852
 21
3477.399935742125
 31
0.0
  0
LINE
  5
330
330
1F
100
AcDbEntity
  8
0
  6
Continuous
 62
     7
370
    25
100
AcDbLine
 10
3614.864504155284
 20
3454.036495027925
 30
0.0
 11
3615.489650520152
 21
3453.995223081302
 31
0.0
  0
SPLINE
  5
331
330
1F
100
AcDbEntity
  8
0
  6
Continuous
 62
     7
370
    25
100
AcDbSpline
210
0.0
220
0.0
230
1.0
 70
     8
 71
     3
 72
    11
 73
     7
 74
     0
 42
0.00000001
 43
0.0000000001
 40
0.0
 40
0.0
 40
0.0
 40
0.0
 40
0.33594308829064
 40
0.500756625068112
 40
0.8367255500170792
 40
1.0
 40
1.0
 40
1.0
 40
1.0
 10
3608.213019394852
 20
3453.352342999671
 30
0.0
 10
3608.844536080825
 20
3453.501689377399
 30
0.0
 10
3609.785874585364
 20
3453.724305024761
 30
0.0
 10
3611.399094518694
 20
3453.954167315759
 30
0.0
 10
3612.69625123156
 20
3454.062172876813
 30
0.0
 10
3613.678676370545
 20
3454.063480297989
 30
0.0
 10
3613.999972420271
 20
3454.063907881978
 30
0.0
  0
LINE
  5
332
330
1F
100
AcDbEntity
  8
0
  6
Continuous
 62
     7
370
    25
100
AcDbLine
 10
3602.579920007062
 20
3452.030386891279
 30
0.0
 11
3608.213019394852
 21
3453.352342999671
 31
0.0
  0
LINE
  5
333
330
1F
100
AcDbEntity
  8
0
  6
Continuous
 62
     7
370
    25
100
AcDbLine
 10
3603.369754401169
 20
3457.838199518363
 30
0.0
 11
3602.579920007062
 21
3452.030386891279
 31
0.0
  0
LINE
  5
334
330
1F
100
AcDbEntity
  8
0
  6
Continuous
 62
     7
370
    25
100
AcDbLine
 10
3603.608480737455
 20
3462.517888230489
 30
0.0
 11
3603.369754401169
 21
3457.838199518363
 31
0.0
  0
LINE
  5
335
330
1F
100
AcDbEntity
  8
0
  6
Continuous
 62
     7
370
    25
100
AcDbLine
 10
3603.119523877784
 20
3466.03607628002
 30
0.0
 11
3603.608480737455
 21
3462.517888230489
 31
0.0
  0
LINE
  5
336
330
1F
100
AcDbEntity
  8
0
  6
Continuous
 62
     7
370
    25
100
AcDbLine
 10
3602.036510965215
 20
3469.442483198751
 30
0.0
 11
3603.119523877784
 21
3466.03607628002
 31
0.0
  0
ARC
  5
337
330
1F
100
AcDbEntity
  8
0
  6
Continuous
 62
     7
370
    25
100
AcDbCircle
 10
3628.278170954283
 20
3480.320213402303
 30
0.0
 40
28.40686067419556
100
AcDbArc
 50
252.824728367577
 51
202.5150542182061
  0
LINE
  5
338
330
1F
100
AcDbEntity
  8
0
  6
Continuous
 62
     7
370
    25
100
AcDbLine
 10
3615.489650520152
 20
3453.995223081302
 30
0.0
 11
3619.8897462218
 21
3453.180131164576
 31
0.0
  0
LINE
  5
339
330
1F
100
AcDbEntity
  8
0
  6
Continuous
 62
     7
370
    25
100
AcDbLine
 10
3615.055557009076
 20
3490.133803443165
 30
0.0
 11
3614.994529560099
 21
3490.179096935661
 31
0.0
  0
SPLINE
  5
33A
330
1F
100
AcDbEntity
  8
0
  6
Continuous
 62
     7
370
    25
100
AcDbSpline
210
0.0
220
0.0
230
1.0
 70
     8
 71
     3
 72
     9
 73
     5
 74
     0
 42
0.00000001
 43
0.0000000001
 40
0.0
 40
0.0
 40
0.0
 40
0.0
 40
0.4999999805618184
 40
1.0
 40
1.0
 40
1.0
 40
1.0
 10
3601.915395611419
 20
3469.392278290118
 30
0.0
 10
3602.327799244376
 20
3468.260926756506
 30
0.0
 10
3603.152606542356
 20
3465.998223601315
 30
0.0
 10
3603.380615930339
 20
3463.623223666397
 30
0.0
 10
3603.494620628762
 20
3462.435723652773
 30
0.0
  0
LINE
  5
33B
330
1F
100
AcDbEntity
  8
0
  6
Continuous
 62
     7
370
    25
100
AcDbLine
 10
3602.036510965215
 20
3469.442483198751
 30
0.0
 11
3601.915395611419
 21
3469.392278290118
 31
0.0
  0
LINE
  5
33C
330
1F
100
AcDbEntity
  8
0
  6
Continuous
 62
     7
370
    25
100
AcDbLine
 10
3603.608480737455
 20
3462.517888230489
 30
0.0
 11
3603.494620628762
 21
3462.435723652773
 31
0.0
  0
SPLINE
  5
33D
330
1F
100
AcDbEntity
  8
0
  6
Continuous
 62
     7
370
    25
100
AcDbSpline
210
0.0
220
0.0
230
1.0
 70
     8
 71
     3
 72
    11
 73
     7
 74
     0
 42
0.00000001
 43
0.0000000001
 40
0.0
 40
0.0
 40
0.0
 40
0.0
 40
0.2497455532959205
 40
0.4987284705457063
 40
0.749544608360008
 40
0.9999999999999998
 40
0.9999999999999998
 40
0.9999999999999998
 40
0.9999999999999998
 10
3608.120411003039
 20
3453.227875905505
 30
0.0
 10
3609.07076846582
 20
3453.43907692186
 30
0.0
 10
3610.968581330271
 20
3453.860834020131
 30
0.0
 10
3613.938154736633
 20
3454.001183036108
 30
0.0
 10
3616.929757668911
 20
3453.790143715529
 30
0.0
 10
3618.877740129649
 20
3453.299843119277
 30
0.0
 10
3619.851030415342
 20
3453.054869246555
 30
0.0
  0
LINE
  5
33E
330
1F
100
AcDbEntity
  8
0
  6
Continuous
 62
     7
370
    25
100
AcDbLine
 10
3608.213019394852
 20
3453.352342999671
 30
0.0
 11
3608.120411003039
 21
3453.227875905505
 31
0.0
  0
LINE
  5
33F
330
1F
100
AcDbEntity
  8
0
  6
Continuous
 62
     7
370
    25
100
AcDbLine
 10
3619.8897462218
 20
3453.180131164576
 30
0.0
 11
3619.851030415342
 21
3453.054869246555
 31
0.0
  0
ARC
  5
340
330
1F
100
AcDbEntity
  8
0
  6
Continuous
 62
     7
370
    25
100
AcDbCircle
 10
3628.278170954283
 20
3480.320213402303
 30
0.0
 40
32.00992003115356
100
AcDbArc
 50
252.870454113215
 51
202.5150542182073
  0
SPLINE
  5
341
330
1F
100
AcDbEntity
  8
0
  6
Continuous
 62
     7
370
    25
100
AcDbSpline
210
0.0
220
0.0
230
1.0
 70
     8
 71
     3
 72
    11
 73
     7
 74
     0
 42
0.00000001
 43
0.0000000001
 40
0.0
 40
0.0
 40
0.0
 40
0.0
 40
0.2497498727962026
 40
0.4987517504754237
 40
0.7495590361033369
 40
1.0
 40
1.0
 40
1.0
 40
1.0
 10
3608.959548273368
 20
3449.858526734514
 30
0.0
 10
3609.760188231719
 20
3450.03837702351
 30
0.0
 10
3611.359070250183
 20
3450.39753895403
 30
0.0
 10
3613.862585341664
 20
3450.520795856165
 30
0.0
 10
3616.385660729724
 20
3450.347127372307
 30
0.0
 10
3618.029079235356
 20
3449.93575099098
 30
0.0
 10
3618.85018796746
 20
3449.730213121148
 30
0.0
  0
LINE
  5
342
330
1F
100
AcDbEntity
  8
0
  6
Continuous
 62
     7
370
    25
100
AcDbLine
 10
3600.879620086344
 20
3447.962357381393
 30
0.0
 11
3608.959548273368
 21
3449.858526734514
 31
0.0
  0
SPLINE
  5
343
330
1F
100
AcDbEntity
  8
0
  6
Continuous
 62
     7
370
    25
100
AcDbSpline
210
0.0
220
0.0
230
1.0
 70
     8
 71
     3
 72
    15
 73
    11
 74
     0
 42
0.00000001
 43
0.0000000001
 40
0.0
 40
0.0
 40
0.0
 40
0.0
 40
0.1248527834764233
 40
0.2499643396003015
 40
0.3748917915147536
 40
0.4995040890512707
 40
0.6245288097956056
 40
0.7497414944613551
 40
0.8749676894783748
 40
1.0
 40
1.0
 40
1.0
 40
1.0
 10
3598.692302386726
 20
3449.950482020379
 30
0.0
 10
3598.682751862368
 20
3449.81001006152
 30
0.0
 10
3598.663631019026
 20
3449.528774998505
 30
0.0
 10
3598.763443658708
 20
3449.10331170494
 30
0.0
 10
3598.959006589125
 20
3448.707840580353
 30
0.0
 10
3599.249918960802
 20
3448.368656364463
 30
0.0
 10
3599.61517407476
 20
3448.110534060255
 30
0.0
 10
3600.028275543985
 20
3447.952784353711
 30
0.0
 10
3600.461997024575
 20
3447.893621555961
 30
0.0
 10
3600.740484317213
 20
3447.939457276457
 30
0.0
 10
3600.879620086344
 20
3447.962357381393
 30
0.0
  0
LINE
  5
344
330
1F
100
AcDbEntity
  8
0
  6
Continuous
 62
     7
370
    25
100
AcDbLine
 10
3599.814509431136
 20
3458.202298212933
 30
0.0
 11
3598.692302386726
 21
3449.950482020379
 31
0.0
  0
LINE
  5
345
330
1F
100
AcDbEntity
  8
0
  6
Continuous
 62
     7
370
    25
100
AcDbLine
 10
3600.025743283428
 20
3462.284795945187
 30
0.0
 11
3599.814509431136
 21
3458.202298212933
 31
0.0
  0
SPLINE
  5
346
330
1F
100
AcDbEntity
  8
0
  6
Continuous
 62
     7
370
    25
100
AcDbSpline
210
0.0
220
0.0
230
1.0
 70
     8
 71
     3
 72
     9
 73
     5
 74
     0
 42
0.00000001
 43
0.0000000001
 40
0.0
 40
0.0
 40
0.0
 40
0.0
 40
0.4999999767848561
 40
1.0
 40
1.0
 40
1.0
 40
1.0
 10
3598.708080567708
 20
3468.062777498712
 30
0.0
 10
3599.050908006983
 20
3467.123032272942
 30
0.0
 10
3599.736562917371
 20
3465.243541734135
 30
0.0
 10
3599.929349825092
 20
3463.271044572031
 30
0.0
 10
3600.025743283428
 20
3462.284795945187
 30
0.0
  0
LINE
  5
347
330
1F
100
AcDbEntity
  8
0
  6
Continuous
 62
     7
370
    25
100
AcDbLine
 10
3603.254792478616
 20
3457.734436377361
 30
0.0
 11
3602.461312694997
 21
3451.899818461228
 31
0.0
  0
LINE
  5
348
330
1F
100
AcDbEntity
  8
0
  6
Continuous
 62
     7
370
    25
100
AcDbLine
 10
3602.461312694997
 20
3451.899818461228
 30
0.0
 11
3608.120411003039
 21
3453.227875905505
 31
0.0
  0
ARC
  5
349
330
1F
100
AcDbEntity
  8
0
  6
Continuous
 62
     7
370
    25
100
AcDbCircle
 10
3628.278170954283
 20
3480.320213402303
 30
0.0
 40
28.5379692619228
100
AcDbArc
 50
252.8247283675769
 51
202.5150542182069
  0
LINE
  5
34A
330
1F
100
AcDbEntity
  8
0
  6
Continuous
 62
     7
370
    25
100
AcDbLine
 10
3603.494620628762
 20
3462.435723652773
 30
0.0
 11
3603.254792478616
 21
3457.734436377361
 31
0.0
  0
LINE
  5
34B
330
1F
100
AcDbEntity
  8
0
  6
Continuous
 62
     7
370
    25
100
AcDbLine
 10
3603.369754401169
 20
3457.838199518363
 30
0.0
 11
3603.254792478616
 21
3457.734436377361
 31
0.0
  0
LINE
  5
34C
330
1F
100
AcDbEntity
  8
0
  6
Continuous
 62
     7
370
    25
100
AcDbLine
 10
3602.579920007062
 20
3452.030386891279
 30
0.0
 11
3602.461312694997
 21
3451.899818461228
 31
0.0
  0
LINE
  5
34D
330
1F
100
AcDbEntity
  8
0
  6
Continuous
 62
     7
370
    25
100
AcDbLine
 10
4830.38693690634
 20
3472.015569119653
 30
0.0
 11
4829.481069717486
 21
3472.015569119653
 31
0.0
  0
SPLINE
  5
34E
330
1F
100
AcDbEntity
  8
0
  6
Continuous
 62
     7
370
    25
100
AcDbSpline
210
0.0
220
0.0
230
1.0
 70
     8
 71
     3
 72
    23
 73
    19
 74
     0
 42
0.00000001
 43
0.0000000001
 40
0.0
 40
0.0
 40
0.0
 40
0.0
 40
0.0625003191969384
 40
0.1249992395012204
 40
0.1874915822001338
 40
0.2499816454423843
 40
0.3124735293962522
 40
0.3749692624755323
 40
0.4374687162947477
 40
0.4999702749476296
 40
0.5624712575477959
 40
0.6249684953152079
 40
0.6874594909352322
 40
0.7499436725622557
 40
0.8124228766245026
 40
0.8749006420425466
 40
0.9373807521372141
 40
1.0
 40
1.0
 40
1.0
 40
1.0
 10
4830.289878014422
 20
3467.246244751651
 30
0.0
 10
4830.621607676794
 20
3466.5590124256
 30
0.0
 10
4831.285059576709
 20
3465.184563155247
 30
0.0
 10
4833.089542497268
 20
3463.704042162514
 30
0.0
 10
4835.247244548998
 20
3462.886773727162
 30
0.0
 10
4837.573382586733
 20
3462.85898190411
 30
0.0
 10
4839.772469523241
 20
3463.624165061775
 30
0.0
 10
4841.581330679969
 20
3465.095395768265
 30
0.0
 10
4842.778487091185
 20
3467.092657682409
 30
0.0
 10
4843.223543144719
 20
3469.371907960207
 30
0.0
 10
4842.870134206308
 20
3471.660245099724
 30
0.0
 10
4841.765490677181
 20
3473.690354966919
 30
0.0
 10
4840.039268359286
 20
3475.227832759586
 30
0.0
 10
4837.89156348139
 20
3476.091853159848
 30
0.0
 10
4835.56749564882
 20
3476.177527315519
 30
0.0
 10
4833.361895669031
 20
3475.460840380478
 30
0.0
 10
4831.47511282884
 20
3474.050160562617
 30
0.0
 10
4830.749931067264
 20
3472.694268949698
 30
0.0
 10
4830.38693690634
 20
3472.015569119653
 30
0.0
  0
LINE
  5
34F
330
1F
100
AcDbEntity
  8
0
  6
Continuous
 62
     7
370
    25
100
AcDbLine
 10
4829.481071690134
 20
3467.246244751652
 30
0.0
 11
4830.289878014422
 21
3467.246244751651
 31
0.0
  0
LINE
  5
350
330
1F
100
AcDbEntity
  8
0
  6
Continuous
 62
     7
370
    25
100
AcDbLine
 10
4829.481091671535
 20
3459.831075841282
 30
0.0
 11
4829.481071690134
 21
3467.246244751652
 31
0.0
  0
SPLINE
  5
351
330
1F
100
AcDbEntity
  8
0
  6
Continuous
 62
     7
370
    25
100
AcDbSpline
210
0.0
220
0.0
230
1.0
 70
     8
 71
     3
 72
    17
 73
    13
 74
     0
 42
0.00000001
 43
0.0000000001
 40
0.0
 40
0.0
 40
0.0
 40
0.0
 40
0.1249061524968284
 40
0.249678629691869
 40
0.3743660091349118
 40
0.4370653111842058
 40
0.499682792264676
 40
0.5625511765384598
 40
0.6250869909965232
 40
0.7500288320175012
 40
0.8749615078987286
 40
1.0
 40
1.0
 40
1.0
 40
1.0
 10
4821.8165519127
 20
3459.831065514594
 30
0.0
 10
4821.873104401162
 20
3459.333468466677
 30
0.0
 10
4821.986148855279
 20
3458.33880690214
 30
0.0
 10
4822.86327334808
 20
3457.061931614763
 30
0.0
 10
4823.925526249432
 20
3456.342404734382
 30
0.0
 10
4824.895555277067
 20
3456.048103256638
 30
0.0
 10
4825.655379400992
 20
3455.973532359575
 30
0.0
 10
4826.413587944959
 20
3456.050470912745
 30
0.0
 10
4827.381295945845
 20
3456.347318479294
 30
0.0
 10
4828.437447875213
 20
3457.06620607869
 30
0.0
 10
4829.311143230011
 20
3458.338793153999
 30
0.0
 10
4829.424426206282
 20
3459.333507920058
 30
0.0
 10
4829.481091671535
 20
3459.831075841282
 30
0.0
  0
LINE
  5
352
330
1F
100
AcDbEntity
  8
0
  6
Continuous
 62
     7
370
    25
100
AcDbLine
 10
4821.8165519127
 20
3463.968736687686
 30
0.0
 11
4821.8165519127
 21
3459.831065514594
 31
0.0
  0
LINE
  5
353
330
1F
100
AcDbEntity
  8
0
  6
Continuous
 62
     7
370
    25
100
AcDbLine
 10
4813.031481702919
 20
3461.488812707459
 30
0.0
 11
4821.8165519127
 21
3463.968736687686
 31
0.0
  0
SPLINE
  5
354
330
1F
100
AcDbEntity
  8
0
  6
Continuous
 62
     7
370
    25
100
AcDbSpline
210
0.0
220
0.0
230
1.0
 70
     8
 71
     3
 72
    15
 73
    11
 74
     0
 42
0.00000001
 43
0.0000000001
 40
0.0
 40
0.0
 40
0.0
 40
0.0
 40
0.1247773356245442
 40
0.249910920188191
 40
0.3748045497466478
 40
0.4994468935588343
 40
0.6245553885321455
 40
0.7496276866824175
 40
0.8742818465247385
 40
1.0
 40
1.0
 40
1.0
 40
1.0
 10
4807.877870315263
 20
3465.389028679223
 30
0.0
 10
4807.898476246572
 20
3465.078775419157
 30
0.0
 10
4807.939746940717
 20
3464.457383101983
 30
0.0
 10
4808.271123334023
 20
3463.569441554522
 30
0.0
 10
4808.78377744601
 20
3462.776960764382
 30
0.0
 10
4809.468989398689
 20
3462.12411334549
 30
0.0
 10
4810.284027800381
 20
3461.645600940521
 30
0.0
 10
4811.182553272591
 20
3461.371809939012
 30
0.0
 10
4812.121615982118
 20
3461.295969794801
 30
0.0
 10
4812.727335098765
 20
3461.424349879945
 30
0.0
 10
4813.031481702919
 20
3461.488812707459
 30
0.0
  0
LINE
  5
355
330
1F
100
AcDbEntity
  8
0
  6
Continuous
 62
     7
370
    25
100
AcDbLine
 10
4807.877885905242
 20
3473.637126850203
 30
0.0
 11
4807.877870315263
 21
3465.389028679223
 31
0.0
  0
SPLINE
  5
356
330
1F
100
AcDbEntity
  8
0
  6
Continuous
 62
     7
370
    25
100
AcDbSpline
210
0.0
220
0.0
230
1.0
 70
     8
 71
     3
 72
    15
 73
    11
 74
     0
 42
0.00000001
 43
0.0000000001
 40
0.0
 40
0.0
 40
0.0
 40
0.0
 40
0.1248092052884251
 40
0.2500200305024954
 40
0.3748296300498484
 40
0.4996557033763065
 40
0.6248576448480087
 40
0.7495966213471213
 40
0.8744401508654169
 40
1.0
 40
1.0
 40
1.0
 40
1.0
 10
4812.632995184147
 20
3477.356618283261
 30
0.0
 10
4812.34767739252
 20
3477.407809940675
 30
0.0
 10
4811.77612369341
 20
3477.510357983654
 30
0.0
 10
4810.905882140414
 20
3477.415342485681
 30
0.0
 10
4810.080631705837
 20
3477.142267564252
 30
0.0
 10
4809.337197940915
 20
3476.687713605605
 30
0.0
 10
4808.712629512738
 20
3476.078137616241
 30
0.0
 10
4808.243486449056
 20
3475.341781289584
 30
0.0
 10
4807.936361041251
 20
3474.514842782974
 30
0.0
 10
4807.897414754641
 20
3473.930256262752
 30
0.0
 10
4807.877885905242
 20
3473.637126850203
 30
0.0
  0
LINE
  5
357
330
1F
100
AcDbEntity
  8
0
  6
Continuous
 62
     7
370
    25
100
AcDbLine
 10
4821.816552515129
 20
3475.078101983643
 30
0.0
 11
4812.632995184147
 21
3477.356618283261
 31
0.0
  0
LINE
  5
358
330
1F
100
AcDbEntity
  8
0
  6
Continuous
 62
     7
370
    25
100
AcDbLine
 10
4821.816546497906
 20
3478.624663371186
 30
0.0
 11
4821.816552515129
 21
3475.078101983643
 31
0.0
  0
SPLINE
  5
359
330
1F
100
AcDbEntity
  8
0
  6
Continuous
 62
     7
370
    25
100
AcDbSpline
210
0.0
220
0.0
230
1.0
 70
     8
 71
     3
 72
    15
 73
    11
 74
     0
 42
0.00000001
 43
0.0000000001
 40
0.0
 40
0.0
 40
0.0
 40
0.0
 40
0.125056134112704
 40
0.2500003936702475
 40
0.3748900573607818
 40
0.4997798413595573
 40
0.6247233892275612
 40
0.7497749289989939
 40
0.8748360603251894
 40
1.0
 40
1.0
 40
1.0
 40
1.0
 10
4829.481069717486
 20
3478.624664180465
 30
0.0
 10
4829.424361576285
 20
3479.127382113228
 30
0.0
 10
4829.310996024688
 20
3480.132368249957
 30
0.0
 10
4828.425031962319
 20
3481.410923427546
 30
0.0
 10
4827.157913375205
 20
3482.265037240392
 30
0.0
 10
4825.650541179206
 20
3482.565425252055
 30
0.0
 10
4824.14246557099
 20
3482.266311232916
 30
0.0
 10
4822.874073381616
 20
3481.412593540913
 30
0.0
 10
4821.986925034503
 20
3480.13357090015
 30
0.0
 10
4821.87335489738
 20
3479.127770296426
 30
0.0
 10
4821.816546497906
 20
3478.624663371186
 30
0.0
  0
LINE
  5
35A
330
1F
100
AcDbEntity
  8
0
  6
Continuous
 62
     7
370
    25
100
AcDbLine
 10
4829.481069717486
 20
3472.015569119653
 30
0.0
 11
4829.481069717486
 21
3478.624664180465
 31
0.0
  0
LINE
  5
35B
330
1F
100
AcDbEntity
  8
0
  6
Continuous
 62
     7
370
    25
100
AcDbLine
 10
4830.871404763687
 20
3478.624357340672
 30
0.0
 11
4830.871404763687
 21
3478.296474659262
 31
0.0
  0
SPLINE
  5
35C
330
1F
100
AcDbEntity
  8
0
  6
Continuous
 62
     7
370
    25
100
AcDbSpline
210
0.0
220
0.0
230
1.0
 70
     8
 71
     3
 72
    15
 73
    11
 74
     0
 42
0.00000001
 43
0.0000000001
 40
0.0
 40
0.0
 40
0.0
 40
0.0
 40
0.1250110191706799
 40
0.2499923088620011
 40
0.3749481991945407
 40
0.4998837854148304
 40
0.6248043937384753
 40
0.749715500984345
 40
0.8746227357774802
 40
1.0
 40
1.0
 40
1.0
 40
1.0
 10
4820.579348264518
 20
3479.879703765246
 30
0.0
 10
4820.795731462726
 20
3480.475942590757
 30
0.0
 10
4821.228446399997
 20
3481.668278447319
 30
0.0
 10
4822.627424363896
 20
3483.017492773508
 30
0.0
 10
4824.371074032907
 20
3483.808190436883
 30
0.0
 10
4826.292063390535
 20
3483.923300367995
 30
0.0
 10
4828.129798246359
 20
3483.351897513609
 30
0.0
 10
4829.633633299596
 20
3482.166904233037
 30
0.0
 10
4830.670274767017
 20
3480.520286481071
 30
0.0
 10
4830.804277546591
 20
3479.25712445206
 30
0.0
 10
4830.871404763687
 20
3478.624357340672
 30
0.0
  0
LINE
  5
35D
330
1F
100
AcDbEntity
  8
0
  6
Continuous
 62
     7
370
    25
100
AcDbLine
 10
4817.092450698891
 20
3478.702028454732
 30
0.0
 11
4820.579348264518
 21
3479.879703765246
 31
0.0
  0
SPLINE
  5
35E
330
1F
100
AcDbEntity
  8
0
  6
Continuous
 62
     7
370
    25
100
AcDbSpline
210
0.0
220
0.0
230
1.0
 70
     8
 71
     3
 72
    15
 73
    11
 74
     0
 42
0.00000001
 43
0.0000000001
 40
0.0
 40
0.0
 40
0.0
 40
0.0
 40
0.1251138268299315
 40
0.2501265539733843
 40
0.375087334371634
 40
0.5000391562833988
 40
0.6250183215381521
 40
0.750048341267876
 40
0.8751416046849529
 40
1.0
 40
1.0
 40
1.0
 40
1.0
 10
4814.348806477878
 20
3485.85188221166
 30
0.0
 10
4813.921662735182
 20
3485.608300181708
 30
0.0
 10
4813.067720408272
 20
3485.121332951106
 30
0.0
 10
4812.247746195768
 20
3483.847534788423
 30
0.0
 10
4811.938377417566
 20
3482.388435111385
 30
0.0
 10
4812.204457830335
 20
3480.913596887949
 30
0.0
 10
4813.000009344948
 20
3479.647751349915
 30
0.0
 10
4814.203597093809
 20
3478.781250758382
 30
0.0
 10
4815.656079427059
 20
3478.388796172568
 30
0.0
 10
4816.613960300512
 20
3478.59768312117
 30
0.0
 10
4817.092450698891
 20
3478.702028454732
 30
0.0
  0
LINE
  5
35F
330
1F
100
AcDbEntity
  8
0
  6
Continuous
 62
     7
370
    25
100
AcDbLine
 10
4820.473909768365
 20
3488.492938013688
 30
0.0
 11
4814.348806477878
 21
3485.85188221166
 31
0.0
  0
LINE
  5
360
330
1F
100
AcDbEntity
  8
0
  6
Continuous
 62
     7
370
    25
100
AcDbLine
 10
4814.994529560099
 20
3490.179096935661
 30
0.0
 11
4820.473909768365
 21
3488.492938013688
 31
0.0
  0
SPLINE
  5
361
330
1F
100
AcDbEntity
  8
0
  6
Continuous
 62
     7
370
    25
100
AcDbSpline
210
0.0
220
0.0
230
1.0
 70
     8
 71
     3
 72
    16
 73
    12
 74
     0
 42
0.00000001
 43
0.0000000001
 40
0.0
 40
0.0
 40
0.0
 40
0.0
 40
0.1250073556817606
 40
0.2498629362156407
 40
0.3124759187237207
 40
0.3752928066555916
 40
0.5001279860581287
 40
0.6250716977549198
 40
0.7501365730611589
 40
0.875120703327752
 40
0.9999999999999998
 40
0.9999999999999998
 40
0.9999999999999998
 40
0.9999999999999998
 10
4817.248849607617
 20
3497.504629975881
 30
0.0
 10
4816.753004114584
 20
3497.598517845804
 30
0.0
 10
4815.761915149277
 20
3497.786179593592
 30
0.0
 10
4814.51630450767
 20
3497.388056011234
 30
0.0
 10
4813.67458755617
 20
3496.831028709781
 30
0.0
 10
4812.956569691551
 20
3496.115514577951
 30
0.0
 10
4812.348495927374
 20
3494.976666719344
 30
0.0
 10
4812.203073208578
 20
3493.444369199348
 30
0.0
 10
4812.653925174732
 20
3491.991266737122
 30
0.0
 10
4813.611457522984
 20
3490.781661755815
 30
0.0
 10
4814.533634518355
 20
3490.379895686909
 30
0.0
 10
4814.994529560099
 20
3490.179096935661
 30
0.0
  0
LINE
  5
362
330
1F
100
AcDbEntity
  8
0
  6
Continuous
 62
     7
370
    25
100
AcDbLine
 10
4828.146463173084
 20
3494.151090971278
 30
0.0
 11
4817.248849607617
 21
3497.504629975881
 31
0.0
  0
LINE
  5
363
330
1F
100
AcDbEntity
  8
0
  6
Continuous
 62
     7
370
    25
100
AcDbLine
 10
4828.146463173084
 20
3498.643239428381
 30
0.0
 11
4828.146463173084
 21
3494.151090971278
 31
0.0
  0
SPLINE
  5
364
330
1F
100
AcDbEntity
  8
0
  6
Continuous
 62
     7
370
    25
100
AcDbSpline
210
0.0
220
0.0
230
1.0
 70
     8
 71
     3
 72
    16
 73
    12
 74
     0
 42
0.00000001
 43
0.0000000001
 40
0.0
 40
0.0
 40
0.0
 40
0.0
 40
0.1249838834778556
 40
0.2498329083229487
 40
0.3746047917904259
 40
0.4373701836425782
 40
0.5000086427398893
 40
0.6248736735557259
 40
0.7498929506168241
 40
0.8748924664021894
 40
0.9999999999999998
 40
0.9999999999999998
 40
0.9999999999999998
 40
0.9999999999999998
 10
4835.72251258856
 20
3498.643239428381
 30
0.0
 10
4835.66636673365
 20
3499.136142671338
 30
0.0
 10
4835.554135605664
 20
3500.121417310623
 30
0.0
 10
4834.683980038983
 20
3501.384440056759
 30
0.0
 10
4833.633230079899
 20
3502.093895798079
 30
0.0
 10
4832.674994340963
 20
3502.383128999638
 30
0.0
 10
4831.680096927097
 20
3502.480518364907
 30
0.0
 10
4830.427955971437
 20
3502.228049735136
 30
0.0
 10
4829.181183383781
 20
3501.378363414868
 30
0.0
 10
4828.314962621464
 20
3500.120876936398
 30
0.0
 10
4828.202645825239
 20
3499.135927059845
 30
0.0
 10
4828.146463173084
 20
3498.643239428381
 30
0.0
  0
LINE
  5
365
330
1F
100
AcDbEntity
  8
0
  6
Continuous
 62
     7
370
    25
100
AcDbLine
 10
4835.72251258856
 20
3491.743462142875
 30
0.0
 11
4835.72251258856
 21
3498.643239428381
 31
0.0
  0
LINE
  5
366
330
1F
100
AcDbEntity
  8
0
  6
Continuous
 62
     7
370
    25
100
AcDbLine
 10
4836.535390383155
 20
3491.743462142875
 30
0.0
 11
4835.72251258856
 21
3491.743462142875
 31
0.0
  0
SPLINE
  5
367
330
1F
100
AcDbEntity
  8
0
  6
Continuous
 62
     7
370
    25
100
AcDbSpline
210
0.0
220
0.0
230
1.0
 70
     8
 71
     3
 72
    23
 73
    19
 74
     0
 42
0.00000001
 43
0.0000000001
 40
0.0
 40
0.0
 40
0.0
 40
0.0
 40
0.0625068568156211
 40
0.1250136408172738
 40
0.187512397406942
 40
0.2499920711176761
 40
0.3124764642983236
 40
0.3749720143701909
 40
0.437478334764521
 40
0.4999928760679679
 40
0.5625133198497162
 40
0.6250393677120785
 40
0.687571740650988
 40
0.7501097323654582
 40
0.812649513171393
 40
0.8751837144314526
 40
0.9376956387521978
 40
1.0
 40
1.0
 40
1.0
 40
1.0
 10
4836.819616412521
 20
3483.944381695617
 30
0.0
 10
4837.299956531513
 20
3483.439651818996
 30
0.0
 10
4838.260636209952
 20
3482.430192653711
 30
0.0
 10
4840.200719985935
 20
3481.579873605247
 30
0.0
 10
4842.272181103218
 20
3481.333369148857
 30
0.0
 10
4844.320466346345
 20
3481.744778423609
 30
0.0
 10
4846.139453902189
 20
3482.761026168448
 30
0.0
 10
4847.560976907333
 20
3484.288959784984
 30
0.0
 10
4848.446145720839
 20
3486.185557658825
 30
0.0
 10
4848.703639071326
 20
3488.27068192793
 30
0.0
 10
4848.301130527082
 20
3490.339459744588
 30
0.0
 10
4847.274748043718
 20
3492.183287053904
 30
0.0
 10
4845.727818564297
 20
3493.615739405262
 30
0.0
 10
4843.819431119371
 20
3494.495152184815
 30
0.0
 10
4841.737449883638
 20
3494.742956490422
 30
0.0
 10
4839.697115018189
 20
3494.332804866853
 30
0.0
 10
4837.845855678899
 20
3493.342084016787
 30
0.0
 10
4836.971727605037
 20
3492.275745011845
 30
0.0
 10
4836.535390383155
 20
3491.743462142875
 30
0.0
  0
LINE
  5
368
330
1F
100
AcDbEntity
  8
0
  6
Continuous
 62
     7
370
    25
100
AcDbLine
 10
4835.494573050979
 20
3483.94438069919
 30
0.0
 11
4836.819616412521
 21
3483.944381695618
 31
0.0
  0
LINE
  5
369
330
1F
100
AcDbEntity
  8
0
  6
Continuous
 62
     7
370
    25
100
AcDbLine
 10
4835.494561863541
 20
3478.678609950583
 30
0.0
 11
4835.494573050979
 21
3483.94438069919
 31
0.0
  0
SPLINE
  5
36A
330
1F
100
AcDbEntity
  8
0
  6
Continuous
 62
     7
370
    25
100
AcDbSpline
210
0.0
220
0.0
230
1.0
 70
     8
 71
     3
 72
    11
 73
     7
 74
     0
 42
0.00000001
 43
0.0000000001
 40
0.0
 40
0.0
 40
0.0
 40
0.0
 40
0.249692436099233
 40
0.4994219562697238
 40
0.7491905203630916
 40
1.0
 40
1.0
 40
1.0
 40
1.0
 10
4834.22499056326
 20
3476.963094189913
 30
0.0
 10
4834.401855101101
 20
3477.0354899093
 30
0.0
 10
4834.75561044453
 20
3477.180292100211
 30
0.0
 10
4835.163404597746
 20
3477.594106402472
 30
0.0
 10
4835.441436232986
 20
3478.10546928654
 30
0.0
 10
4835.476828787943
 20
3478.487298400634
 30
0.0
 10
4835.494561863541
 20
3478.678609950583
 30
0.0
  0
LINE
  5
36B
330
1F
100
AcDbEntity
  8
0
  6
Continuous
 62
     7
370
    25
100
AcDbLine
 10
4833.381098921464
 20
3476.651658271909
 30
0.0
 11
4834.22499056326
 21
3476.963094189913
 31
0.0
  0
SPLINE
  5
36C
330
1F
100
AcDbEntity
  8
0
  6
Continuous
 62
     7
370
    25
100
AcDbSpline
210
0.0
220
0.0
230
1.0
 70
     8
 71
     3
 72
    15
 73
    11
 74
     0
 42
0.00000001
 43
0.0000000001
 40
0.0
 40
0.0
 40
0.0
 40
0.0
 40
0.124809548885059
 40
0.249940090870934
 40
0.3750289785020842
 40
0.4997493000649025
 40
0.6246701349542719
 40
0.7498228612261961
 40
0.8748537926432904
 40
1.0
 40
1.0
 40
1.0
 40
1.0
 10
4830.871404763687
 20
3478.296474659262
 30
0.0
 10
4830.882027416861
 20
3478.148543819768
 30
0.0
 10
4830.903300043221
 20
3477.85230168288
 30
0.0
 10
4831.072091584754
 20
3477.435026114419
 30
0.0
 10
4831.330245376364
 20
3477.070522091179
 30
0.0
 10
4831.671540661566
 20
3476.781128672778
 30
0.0
 10
4832.073028903335
 20
3476.583409323116
 30
0.0
 10
4832.510343312517
 20
3476.491985605099
 30
0.0
 10
4832.960538873333
 20
3476.503530475462
 30
0.0
 10
4833.240869182142
 20
3476.602267174552
 30
0.0
 10
4833.381098921464
 20
3476.651658271909
 30
0.0
  0
LINE
  5
36D
330
1F
100
AcDbEntity
  8
0
  6
Continuous
 62
     7
370
    25
100
AcDbLine
 10
4830.859490978959
 20
3478.632148409868
 30
0.0
 11
4830.871404763687
 21
3478.624357340672
 31
0.0
  0
SPLINE
  5
36E
330
1F
100
AcDbEntity
  8
0
  6
Continuous
 62
     7
370
    25
100
AcDbSpline
210
0.0
220
0.0
230
1.0
 70
     8
 71
     3
 72
    15
 73
    11
 74
     0
 42
0.00000001
 43
0.0000000001
 40
0.0
 40
0.0
 40
0.0
 40
0.0
 40
0.125011019170682
 40
0.2499923088620036
 40
0.374948199194539
 40
0.4998837854148256
 40
0.6248043937384756
 40
0.749715500984344
 40
0.8746227357774813
 40
1.0
 40
1.0
 40
1.0
 40
1.0
 10
4820.614718047166
 20
3479.88172754612
 30
0.0
 10
4820.83010714186
 20
3480.475227142724
 30
0.0
 10
4821.260834108517
 20
3481.662085192901
 30
0.0
 10
4822.653384914847
 20
3483.005100984666
 30
0.0
 10
4824.389023942194
 20
3483.792166040093
 30
0.0
 10
4826.301187927581
 20
3483.90674713538
 30
0.0
 10
4828.130479897391
 20
3483.337969408963
 30
0.0
 10
4829.627406060643
 20
3482.158420201655
 30
0.0
 10
4830.659285009837
 20
3480.519367309193
 30
0.0
 10
4830.792672156427
 20
3479.262008474802
 30
0.0
 10
4830.859490978959
 20
3478.632148409868
 30
0.0
  0
LINE
  5
36F
330
1F
100
AcDbEntity
  8
0
  6
Continuous
 62
     7
370
    25
100
AcDbLine
 10
4820.614718047166
 20
3479.88172754612
 30
0.0
 11
4820.579348264518
 21
3479.879703765246
 31
0.0
  0
LINE
  5
370
330
1F
100
AcDbEntity
  8
0
  6
Continuous
 62
     7
370
    25
100
AcDbLine
 10
4830.859490978959
 20
3478.305772080745
 30
0.0
 11
4830.871404763687
 21
3478.296474659262
 31
0.0
  0
LINE
  5
371
330
1F
100
AcDbEntity
  8
0
  6
Continuous
 62
     7
370
    25
100
AcDbLine
 10
4830.859490978959
 20
3478.632148409868
 30
0.0
 11
4830.859490978959
 21
3478.305772080745
 31
0.0
  0
SPLINE
  5
372
330
1F
100
AcDbEntity
  8
0
  6
Continuous
 62
     7
370
    25
100
AcDbSpline
210
0.0
220
0.0
230
1.0
 70
     8
 71
     3
 72
    11
 73
     7
 74
     0
 42
0.00000001
 43
0.0000000001
 40
0.0
 40
0.0
 40
0.0
 40
0.0
 40
0.3262818662696131
 40
0.6534028849032641
 40
0.980415009139587
 40
1.0
 40
1.0
 40
1.0
 40
1.0
 10
4830.859490978959
 20
3478.305772080745
 30
0.0
 10
4830.869635078901
 20
3478.158059677352
 30
0.0
 10
4830.889949368025
 20
3477.862254974455
 30
0.0
 10
4831.064432012118
 20
3477.453836002484
 30
0.0
 10
4831.224179338111
 20
3477.186337445825
 30
0.0
 10
4831.343724460218
 20
3477.086112213332
 30
0.0
 10
4831.350479536998
 20
3477.080448835949
 30
0.0
  0
LINE
  5
373
330
1F
100
AcDbEntity
  8
0
  6
Continuous
 62
     7
370
    25
100
AcDbLine
 10
4830.377248854493
 20
3472.053722156174
 30
0.0
 11
4830.38693690634
 21
3472.015569119653
 31
0.0
  0
SPLINE
  5
374
330
1F
100
AcDbEntity
  8
0
  6
Continuous
 62
     7
370
    25
100
AcDbSpline
210
0.0
220
0.0
230
1.0
 70
     8
 71
     3
 72
    13
 73
     9
 74
     0
 42
0.00000001
 43
0.0000000001
 40
0.0
 40
0.0
 40
0.0
 40
0.0
 40
0.0216458925438376
 40
0.2363524566586421
 40
0.4494753031934796
 40
0.6609847178209991
 40
0.8714214964836775
 40
1.0
 40
1.0
 40
1.0
 40
1.0
 10
4839.043541193009
 20
3475.556191922378
 30
0.0
 10
4838.980159235116
 20
3475.595742944812
 30
0.0
 10
4838.288088837662
 20
3476.027602305522
 30
0.0
 10
4836.660702291585
 20
3476.206146729466
 30
0.0
 10
4834.451203650177
 20
3475.955556000337
 30
0.0
 10
4832.452852152057
 20
3474.914569323171
 30
0.0
 10
4831.085341802181
 20
3473.516800654781
 30
0.0
 10
4830.571959593492
 20
3472.456038118516
 30
0.0
 10
4830.377248854493
 20
3472.053722156174
 30
0.0
  0
LINE
  5
375
330
1F
100
AcDbEntity
  8
0
  6
Continuous
 62
     7
370
    25
100
AcDbLine
 10
4817.143839919054
 20
3478.709462688794
 30
0.0
 11
4820.614718047166
 21
3479.88172754612
 31
0.0
  0
LINE
  5
376
330
1F
100
AcDbEntity
  8
0
  6
Continuous
 62
     7
370
    25
100
AcDbLine
 10
4817.143839919054
 20
3478.709462688794
 30
0.0
 11
4817.092450698891
 21
3478.702028454732
 31
0.0
  0
LINE
  5
377
330
1F
100
AcDbEntity
  8
0
  6
Continuous
 62
     7
370
    25
100
AcDbLine
 10
4836.78037546861
 20
3483.927731611576
 30
0.0
 11
4836.819616412521
 21
3483.944381695618
 31
0.0
  0
LINE
  5
378
330
1F
100
AcDbEntity
  8
0
  6
Continuous
 62
     7
370
    25
100
AcDbLine
 10
4835.461419595712
 20
3483.927730619724
 30
0.0
 11
4836.78037546861
 21
3483.927731611576
 31
0.0
  0
LINE
  5
379
330
1F
100
AcDbEntity
  8
0
  6
Continuous
 62
     7
370
    25
100
AcDbLine
 10
4812.704871948787
 20
3477.370233574773
 30
0.0
 11
4812.632995184147
 21
3477.356618283261
 31
0.0
  0
LINE
  5
37A
330
1F
100
AcDbEntity
  8
0
  6
Continuous
 62
     7
370
    25
100
AcDbLine
 10
4821.846238357881
 20
3475.102185190773
 30
0.0
 11
4812.704871948787
 21
3477.370233574773
 31
0.0
  0
LINE
  5
37B
330
1F
100
AcDbEntity
  8
0
  6
Continuous
 62
     7
370
    25
100
AcDbLine
 10
4830.377248854493
 20
3472.053722156174
 30
0.0
 11
4829.475543383199
 21
3472.053722156174
 31
0.0
  0
SPLINE
  5
37C
330
1F
100
AcDbEntity
  8
0
  6
Continuous
 62
     7
370
    25
100
AcDbSpline
210
0.0
220
0.0
230
1.0
 70
     8
 71
     3
 72
    11
 73
     7
 74
     0
 42
0.00000001
 43
0.0000000001
 40
0.0
 40
0.0
 40
0.0
 40
0.0
 40
0.3211666732377601
 40
0.641249577754898
 40
0.9612249807881278
 40
0.9999999999999998
 40
0.9999999999999998
 40
0.9999999999999998
 40
0.9999999999999998
 10
4836.78037546861
 20
3483.927731611573
 30
0.0
 10
4837.260842950139
 20
3483.42040551417
 30
0.0
 10
4838.220156587976
 20
3482.407465278299
 30
0.0
 10
4840.146842177832
 20
3481.611615257782
 30
0.0
 10
4841.625409238238
 20
3481.307235483917
 30
0.0
 10
4842.373239580428
 20
3481.469447262877
 30
0.0
 10
4842.454067738634
 20
3481.486979687803
 30
0.0
  0
LINE
  5
37D
330
1F
100
AcDbEntity
  8
0
  6
Continuous
 62
     7
370
    25
100
AcDbLine
 10
4813.880179649036
 20
3490.764083966713
 30
0.0
 11
4815.055557009076
 21
3490.133803443165
 31
0.0
  0
LINE
  5
37E
330
1F
100
AcDbEntity
  8
0
  6
Continuous
 62
     7
370
    25
100
AcDbLine
 10
4815.055557009076
 20
3490.133803443165
 30
0.0
 11
4820.509763954517
 21
3488.455391039976
 31
0.0
  0
LINE
  5
37F
330
1F
100
AcDbEntity
  8
0
  6
Continuous
 62
     7
370
    25
100
AcDbLine
 10
4816.480760758434
 20
3478.619255375662
 30
0.0
 11
4817.143839919054
 21
3478.709462688794
 31
0.0
  0
LINE
  5
380
330
1F
100
AcDbEntity
  8
0
  6
Continuous
 62
     7
370
    25
100
AcDbLine
 10
4812.704871948787
 20
3477.370233574773
 30
0.0
 11
4812.301755169851
 21
3477.399935742125
 31
0.0
  0
LINE
  5
381
330
1F
100
AcDbEntity
  8
0
  6
Continuous
 62
     7
370
    25
100
AcDbLine
 10
4814.864504155282
 20
3454.036495027925
 30
0.0
 11
4815.489650520152
 21
3453.995223081302
 31
0.0
  0
SPLINE
  5
382
330
1F
100
AcDbEntity
  8
0
  6
Continuous
 62
     7
370
    25
100
AcDbSpline
210
0.0
220
0.0
230
1.0
 70
     8
 71
     3
 72
    11
 73
     7
 74
     0
 42
0.00000001
 43
0.0000000001
 40
0.0
 40
0.0
 40
0.0
 40
0.0
 40
0.33594308829064
 40
0.500756625068112
 40
0.8367255500170792
 40
1.0
 40
1.0
 40
1.0
 40
1.0
 10
4808.213019394852
 20
3453.352342999671
 30
0.0
 10
4808.844536080824
 20
3453.501689377399
 30
0.0
 10
4809.785874585363
 20
3453.724305024761
 30
0.0
 10
4811.399094518694
 20
3453.954167315759
 30
0.0
 10
4812.696251231559
 20
3454.062172876813
 30
0.0
 10
4813.678676370545
 20
3454.063480297989
 30
0.0
 10
4813.999972420271
 20
3454.063907881977
 30
0.0
  0
LINE
  5
383
330
1F
100
AcDbEntity
  8
0
  6
Continuous
 62
     7
370
    25
100
AcDbLine
 10
4802.579920007062
 20
3452.030386891279
 30
0.0
 11
4808.213019394852
 21
3453.352342999671
 31
0.0
  0
LINE
  5
384
330
1F
100
AcDbEntity
  8
0
  6
Continuous
 62
     7
370
    25
100
AcDbLine
 10
4803.369754401169
 20
3457.838199518363
 30
0.0
 11
4802.579920007062
 21
3452.030386891279
 31
0.0
  0
LINE
  5
385
330
1F
100
AcDbEntity
  8
0
  6
Continuous
 62
     7
370
    25
100
AcDbLine
 10
4803.608480737455
 20
3462.517888230489
 30
0.0
 11
4803.369754401169
 21
3457.838199518363
 31
0.0
  0
LINE
  5
386
330
1F
100
AcDbEntity
  8
0
  6
Continuous
 62
     7
370
    25
100
AcDbLine
 10
4803.119523877784
 20
3466.03607628002
 30
0.0
 11
4803.608480737455
 21
3462.517888230489
 31
0.0
  0
LINE
  5
387
330
1F
100
AcDbEntity
  8
0
  6
Continuous
 62
     7
370
    25
100
AcDbLine
 10
4802.036510965214
 20
3469.44248319875
 30
0.0
 11
4803.119523877784
 21
3466.03607628002
 31
0.0
  0
ARC
  5
388
330
1F
100
AcDbEntity
  8
0
  6
Continuous
 62
     7
370
    25
100
AcDbCircle
 10
4828.278170954282
 20
3480.320213402303
 30
0.0
 40
28.40686067419579
100
AcDbArc
 50
252.824728367577
 51
202.5150542182066
  0
LINE
  5
389
330
1F
100
AcDbEntity
  8
0
  6
Continuous
 62
     7
370
    25
100
AcDbLine
 10
4815.489650520152
 20
3453.995223081302
 30
0.0
 11
4819.889746221799
 21
3453.180131164576
 31
0.0
  0
LINE
  5
38A
330
1F
100
AcDbEntity
  8
0
  6
Continuous
 62
     7
370
    25
100
AcDbLine
 10
4815.055557009076
 20
3490.133803443165
 30
0.0
 11
4814.994529560099
 21
3490.179096935661
 31
0.0
  0
SPLINE
  5
38B
330
1F
100
AcDbEntity
  8
0
  6
Continuous
 62
     7
370
    25
100
AcDbSpline
210
0.0
220
0.0
230
1.0
 70
     8
 71
     3
 72
    11
 73
     7
 74
     0
 42
0.00000001
 43
0.0000000001
 40
0.0
 40
0.0
 40
0.0
 40
0.0
 40
0.2497455532959205
 40
0.4987284705457063
 40
0.749544608360008
 40
0.9999999999999998
 40
0.9999999999999998
 40
0.9999999999999998
 40
0.9999999999999998
 10
4808.12041100304
 20
3453.227875905505
 30
0.0
 10
4809.07076846582
 20
3453.43907692186
 30
0.0
 10
4810.96858133027
 20
3453.86083402013
 30
0.0
 10
4813.938154736632
 20
3454.001183036108
 30
0.0
 10
4816.929757668912
 20
3453.790143715529
 30
0.0
 10
4818.877740129649
 20
3453.299843119277
 30
0.0
 10
4819.851030415342
 20
3453.054869246555
 30
0.0
  0
LINE
  5
38C
330
1F
100
AcDbEntity
  8
0
  6
Continuous
 62
     7
370
    25
100
AcDbLine
 10
4808.213019394852
 20
3453.352342999671
 30
0.0
 11
4808.12041100304
 21
3453.227875905505
 31
0.0
  0
LINE
  5
38D
330
1F
100
AcDbEntity
  8
0
  6
Continuous
 62
     7
370
    25
100
AcDbLine
 10
4819.889746221799
 20
3453.180131164576
 30
0.0
 11
4819.851030415342
 21
3453.054869246555
 31
0.0
  0
ARC
  5
38E
330
1F
100
AcDbEntity
  8
0
  6
Continuous
 62
     7
370
    25
100
AcDbCircle
 10
4828.278170954282
 20
3480.320213402303
 30
0.0
 40
32.00992003115342
100
AcDbArc
 50
252.8704541132158
 51
202.5150542182078
  0
SPLINE
  5
38F
330
1F
100
AcDbEntity
  8
0
  6
Continuous
 62
     7
370
    25
100
AcDbSpline
210
0.0
220
0.0
230
1.0
 70
     8
 71
     3
 72
    11
 73
     7
 74
     0
 42
0.00000001
 43
0.0000000001
 40
0.0
 40
0.0
 40
0.0
 40
0.0
 40
0.2497498727962026
 40
0.4987517504754237
 40
0.7495590361033369
 40
1.0
 40
1.0
 40
1.0
 40
1.0
 10
4808.959548273368
 20
3449.858526734514
 30
0.0
 10
4809.760188231718
 20
3450.03837702351
 30
0.0
 10
4811.359070250183
 20
3450.39753895403
 30
0.0
 10
4813.862585341666
 20
3450.520795856164
 30
0.0
 10
4816.385660729723
 20
3450.347127372307
 30
0.0
 10
4818.029079235356
 20
3449.93575099098
 30
0.0
 10
4818.85018796746
 20
3449.730213121148
 30
0.0
  0
LINE
  5
390
330
1F
100
AcDbEntity
  8
0
  6
Continuous
 62
     7
370
    25
100
AcDbLine
 10
4800.879620086345
 20
3447.962357381393
 30
0.0
 11
4808.959548273368
 21
3449.858526734514
 31
0.0
  0
SPLINE
  5
391
330
1F
100
AcDbEntity
  8
0
  6
Continuous
 62
     7
370
    25
100
AcDbSpline
210
0.0
220
0.0
230
1.0
 70
     8
 71
     3
 72
    15
 73
    11
 74
     0
 42
0.00000001
 43
0.0000000001
 40
0.0
 40
0.0
 40
0.0
 40
0.0
 40
0.1248527834764233
 40
0.2499643396003015
 40
0.3748917915147536
 40
0.4995040890512707
 40
0.6245288097956056
 40
0.7497414944613551
 40
0.8749676894783748
 40
1.0
 40
1.0
 40
1.0
 40
1.0
 10
4798.692302386725
 20
3449.950482020378
 30
0.0
 10
4798.682751862368
 20
3449.81001006152
 30
0.0
 10
4798.663631019026
 20
3449.528774998505
 30
0.0
 10
4798.763443658708
 20
3449.10331170494
 30
0.0
 10
4798.959006589124
 20
3448.707840580353
 30
0.0
 10
4799.249918960802
 20
3448.368656364462
 30
0.0
 10
4799.615174074761
 20
3448.110534060255
 30
0.0
 10
4800.028275543985
 20
3447.952784353711
 30
0.0
 10
4800.461997024575
 20
3447.89362155596
 30
0.0
 10
4800.740484317214
 20
3447.939457276457
 30
0.0
 10
4800.879620086345
 20
3447.962357381393
 30
0.0
  0
LINE
  5
392
330
1F
100
AcDbEntity
  8
0
  6
Continuous
 62
     7
370
    25
100
AcDbLine
 10
4799.814509431135
 20
3458.202298212931
 30
0.0
 11
4798.692302386725
 21
3449.950482020378
 31
0.0
  0
LINE
  5
393
330
1F
100
AcDbEntity
  8
0
  6
Continuous
 62
     7
370
    25
100
AcDbLine
 10
4800.025743283428
 20
3462.284795945187
 30
0.0
 11
4799.814509431135
 21
3458.202298212931
 31
0.0
  0
SPLINE
  5
394
330
1F
100
AcDbEntity
  8
0
  6
Continuous
 62
     7
370
    25
100
AcDbSpline
210
0.0
220
0.0
230
1.0
 70
     8
 71
     3
 72
     9
 73
     5
 74
     0
 42
0.00000001
 43
0.0000000001
 40
0.0
 40
0.0
 40
0.0
 40
0.0
 40
0.4999999767848519
 40
1.0
 40
1.0
 40
1.0
 40
1.0
 10
4798.708080567709
 20
3468.062777498712
 30
0.0
 10
4799.050908006984
 20
3467.123032272941
 30
0.0
 10
4799.736562917369
 20
3465.243541734134
 30
0.0
 10
4799.929349825092
 20
3463.271044572031
 30
0.0
 10
4800.025743283428
 20
3462.284795945187
 30
0.0
  0
LINE
  5
395
330
1F
100
AcDbEntity
  8
0
  6
Continuous
 62
     7
370
    25
100
AcDbLine
 10
4803.254792478615
 20
3457.73443637736
 30
0.0
 11
4802.461312694997
 21
3451.899818461228
 31
0.0
  0
LINE
  5
396
330
1F
100
AcDbEntity
  8
0
  6
Continuous
 62
     7
370
    25
100
AcDbLine
 10
4802.461312694997
 20
3451.899818461228
 30
0.0
 11
4808.12041100304
 21
3453.227875905505
 31
0.0
  0
ARC
  5
397
330
1F
100
AcDbEntity
  8
0
  6
Continuous
 62
     7
370
    25
100
AcDbCircle
 10
4828.278170954282
 20
3480.320213402303
 30
0.0
 40
28.5379692619228
100
AcDbArc
 50
252.8247283675769
 51
202.5150542182069
  0
SPLINE
  5
398
330
1F
100
AcDbEntity
  8
0
  6
Continuous
 62
     7
370
    25
100
AcDbSpline
210
0.0
220
0.0
230
1.0
 70
     8
 71
     3
 72
     9
 73
     5
 74
     0
 42
0.00000001
 43
0.0000000001
 40
0.0
 40
0.0
 40
0.0
 40
0.0
 40
0.4999999805618184
 40
1.0
 40
1.0
 40
1.0
 40
1.0
 10
4801.915395611419
 20
3469.392278290118
 30
0.0
 10
4802.327799244375
 20
3468.260926756506
 30
0.0
 10
4803.152606542356
 20
3465.998223601315
 30
0.0
 10
4803.380615930339
 20
3463.623223666397
 30
0.0
 10
4803.494620628761
 20
3462.435723652773
 30
0.0
  0
LINE
  5
399
330
1F
100
AcDbEntity
  8
0
  6
Continuous
 62
     7
370
    25
100
AcDbLine
 10
4803.494620628761
 20
3462.435723652773
 30
0.0
 11
4803.254792478615
 21
3457.73443637736
 31
0.0
  0
LINE
  5
39A
330
1F
100
AcDbEntity
  8
0
  6
Continuous
 62
     7
370
    25
100
AcDbLine
 10
4802.036510965214
 20
3469.44248319875
 30
0.0
 11
4801.915395611419
 21
3469.392278290118
 31
0.0
  0
LINE
  5
39B
330
1F
100
AcDbEntity
  8
0
  6
Continuous
 62
     7
370
    25
100
AcDbLine
 10
4803.608480737455
 20
3462.517888230489
 30
0.0
 11
4803.494620628761
 21
3462.435723652773
 31
0.0
  0
LINE
  5
39C
330
1F
100
AcDbEntity
  8
0
  6
Continuous
 62
     7
370
    25
100
AcDbLine
 10
4803.369754401169
 20
3457.838199518363
 30
0.0
 11
4803.254792478615
 21
3457.73443637736
 31
0.0
  0
LINE
  5
39D
330
1F
100
AcDbEntity
  8
0
  6
Continuous
 62
     7
370
    25
100
AcDbLine
 10
4802.579920007062
 20
3452.030386891279
 30
0.0
 11
4802.461312694997
 21
3451.899818461228
 31
0.0
  0
LINE
  5
39E
330
1F
100
AcDbEntity
  8
0
  6
Continuous
 62
     7
370
    25
100
AcDbLine
 10
3617.237914986811
 20
3453.632036249203
 30
0.0
 11
3619.8897462218
 21
3453.180131164576
 31
0.0
  0
SPLINE
  5
39F
330
1F
100
AcDbEntity
  8
0
  6
Continuous
 62
     7
370
    25
100
AcDbSpline
210
0.0
220
0.0
230
1.0
 70
     8
 71
     3
 72
     9
 73
     5
 74
     0
 42
0.00000001
 43
0.0000000001
 40
0.0
 40
0.0
 40
0.0
 40
0.0
 40
0.9910731980103504
 40
1.0
 40
1.0
 40
1.0
 40
1.0
 10
3602.036510965215
 20
3469.442483198751
 30
0.0
 10
3602.489216745056
 20
3468.345804430254
 30
0.0
 10
3602.946000139815
 20
3467.239247648477
 30
0.0
 10
3603.108440380338
 20
3466.07675370374
 30
0.0
 10
3603.1098904522
 20
3466.06637635048
 30
0.0
  0
LINE
  5
3A0
330
1F
100
AcDbEntity
  8
0
  6
Continuous
 62
     7
370
    25
100
AcDbLine
 10
4817.237914986811
 20
3453.632036249203
 30
0.0
 11
4819.889746221799
 21
3453.180131164576
 31
0.0
  0
SPLINE
  5
3A1
330
1F
100
AcDbEntity
  8
0
  6
Continuous
 62
     7
370
    25
100
AcDbSpline
210
0.0
220
0.0
230
1.0
 70
     8
 71
     3
 72
     9
 73
     5
 74
     0
 42
0.00000001
 43
0.0000000001
 40
0.0
 40
0.0
 40
0.0
 40
0.0
 40
0.9910731980103504
 40
1.0
 40
1.0
 40
1.0
 40
1.0
 10
4802.036510965214
 20
3469.44248319875
 30
0.0
 10
4802.489216745051
 20
3468.345804430254
 30
0.0
 10
4802.946000139804
 20
3467.239247648477
 30
0.0
 10
4803.108440380338
 20
3466.076753703739
 30
0.0
 10
4803.1098904522
 20
3466.066376350479
 30
0.0
  0
CIRCLE
  5
3A2
330
1F
100
AcDbEntity
  8
0
  6
Continuous
 62
     7
370
    25
100
AcDbCircle
 10
4828.278170954282
 20
3480.320213402303
 30
0.0
 40
53.38142387184643
  0
CIRCLE
  5
3A3
330
1F
100
AcDbEntity
  8
0
  6
Continuous
 62
     7
370
    25
100
AcDbCircle
 10
3628.278170954283
 20
3480.320213402303
 30
0.0
 40
53.38142387184643
  0
LINE
  5
3A4
330
1F
100
AcDbEntity
  8
0
  6
Continuous
 62
     7
370
    25
100
AcDbLine
 10
3596.960279660989
 20
3428.076034496401
 30
0.0
 11
3599.41661019216
 21
3432.330523776572
 31
0.0
  0
SPLINE
  5
3A5
330
1F
100
AcDbEntity
  8
0
  6
Continuous
 62
     7
370
    25
100
AcDbSpline
210
0.0
220
0.0
230
1.0
 70
     8
 71
     3
 72
    16
 73
    12
 74
     0
 42
0.00000001
 43
0.0000000001
 40
0.0
 40
0.0
 40
0.0
 40
0.0
 40
0.0036530423091781
 40
0.0124065103978602
 40
0.0324246526109319
 40
0.085229938119749
 40
0.2357902969094916
 40
0.4996983302118803
 40
0.6992538435411802
 40
0.8471293154620301
 40
1.0
 40
1.0
 40
1.0
 40
1.0
 10
3599.41661019216
 20
3432.330523776572
 30
0.0
 10
3599.41871992132
 20
3432.33069030924
 30
0.0
 10
3599.425885011277
 20
3432.331255889685
 30
0.0
 10
3599.444610545756
 20
3432.332735110401
 30
0.0
 10
3599.491709659961
 20
3432.336461152078
 30
0.0
 10
3599.620494601776
 20
3432.346688477805
 30
0.0
 10
3599.886591483766
 20
3432.368043583082
 30
0.0
 10
3600.214610029175
 20
3432.394947667688
 30
0.0
 10
3600.465779129051
 20
3432.415950863287
 30
0.0
 10
3600.603440986885
 20
3432.427579463892
 30
0.0
 10
3600.62010661288
 20
3432.42899418906
 30
0.0
 10
3600.628577828886
 20
3432.42971330051
 30
0.0
  0
LINE
  5
3A6
330
1F
100
AcDbEntity
  8
0
  6
Continuous
 62
     7
370
    25
100
AcDbLine
 10
3600.628577828886
 20
3432.42971330051
 30
0.0
 11
3597.322200502618
 21
3426.702899782421
 31
0.0
  0
SPLINE
  5
3A7
330
1F
100
AcDbEntity
  8
0
  6
Continuous
 62
     7
370
    25
100
AcDbSpline
210
0.0
220
0.0
230
1.0
 70
     8
 71
     3
 72
    13
 73
     9
 74
     0
 42
0.00000001
 43
0.0000000001
 40
0.0
 40
0.0
 40
0.0
 40
0.0
 40
0.2074964269243733
 40
0.4900206215363848
 40
0.6901745899068399
 40
0.8451445941389133
 40
0.9766016119908339
 40
0.9999999999999998
 40
0.9999999999999998
 40
0.9999999999999998
 40
0.9999999999999998
 10
3597.322200502618
 20
3426.702899782421
 30
0.0
 10
3597.362225233359
 20
3426.787498262087
 30
0.0
 10
3597.456747070311
 20
3426.987284832879
 30
0.0
 10
3597.470787260521
 20
3427.322576135882
 30
0.0
 10
3597.369984554016
 20
3427.64780366203
 30
0.0
 10
3597.206462240542
 20
3427.886647088482
 30
0.0
 10
3597.056575270719
 20
3428.016486570414
 30
0.0
 10
3596.972919852208
 20
3428.068217970047
 30
0.0
 10
3596.960279660989
 20
3428.076034496401
 30
0.0
  0
LINE
  5
3A8
330
1F
100
AcDbEntity
  8
0
  6
Continuous
 62
     7
370
    25
100
AcDbLine
 10
3593.348479668311
 20
3419.820213402305
 30
0.0
 11
3597.322200502618
 21
3426.702899782421
 31
0.0
  0
SPLINE
  5
3A9
330
1F
100
AcDbEntity
  8
0
  6
Continuous
 62
     7
370
    25
100
AcDbSpline
210
0.0
220
0.0
230
1.0
 70
     8
 71
     3
 72
    14
 73
    10
 74
     0
 42
0.00000001
 43
0.0000000001
 40
0.0
 40
0.0
 40
0.0
 40
0.0
 40
0.108199313295709
 40
0.2169299671282156
 40
0.3180442696460503
 40
0.4207399372445387
 40
0.5723650247537539
 40
0.7800438867915642
 40
0.9999999999999998
 40
0.9999999999999998
 40
0.9999999999999998
 40
0.9999999999999998
 10
3588.152327245604
 20
3419.820213402305
 30
0.0
 10
3588.291389084727
 20
3419.613545023818
 30
0.0
 10
3588.570195661874
 20
3419.199193368653
 30
0.0
 10
3589.203811049905
 20
3418.711455276771
 30
0.0
 10
3589.909180122813
 20
3418.409474579795
 30
0.0
 10
3590.723478286952
 20
3418.279398609625
 30
0.0
 10
3591.690740150204
 20
3418.405804608291
 30
0.0
 10
3592.681584623075
 20
3418.907903453056
 30
0.0
 10
3593.121966912526
 20
3419.510344792227
 30
0.0
 10
3593.348479668311
 20
3419.820213402305
 30
0.0
  0
SPLINE
  5
3AA
330
1F
100
AcDbEntity
  8
0
  6
Continuous
 62
     7
370
    25
100
AcDbSpline
210
0.0
220
0.0
230
1.0
 70
    24
 71
     3
 72
    12
 73
     8
 74
     0
 42
0.00000001
 43
0.0000000001
 40
0.0
 40
0.0
 40
0.0
 40
0.0
 40
0.1731309271760668
 40
0.3462818795532292
 40
0.5240776342850007
 40
0.7019121627657773
 40
1.0
 40
1.0
 40
1.0
 40
1.0
 10
3572.236519691614
 20
3447.387200729306
 30
0.0
 10
3573.187415210381
 20
3445.74020137811
 30
0.0
 10
3575.089316233317
 20
3442.44601217542
 30
0.0
 10
3577.94409233836
 20
3437.501394917251
 30
0.0
 10
3580.78085888666
 20
3432.587971126383
 30
0.0
 10
3584.226998414044
 20
3426.619082374982
 30
0.0
 10
3586.640599393214
 20
3422.438602849862
 30
0.0
 10
3588.152327245604
 20
3419.820213402305
 30
0.0
  0
LINE
  5
3AB
330
1F
100
AcDbEntity
  8
0
  6
Continuous
 62
     7
370
    25
100
AcDbLine
 10
3572.41953241015
 20
3448.070213402284
 30
0.0
 11
3572.236519691614
 21
3447.387200729306
 31
0.0
  0
LINE
  5
3AC
330
1F
100
AcDbEntity
  8
0
  6
Continuous
 62
     7
370
    25
100
AcDbLine
 10
3571.736519691656
 20
3448.253226133016
 30
0.0
 11
3572.41953241015
 21
3448.070213402284
 31
0.0
  0
SPLINE
  5
3AD
330
1F
100
AcDbEntity
  8
0
  6
Continuous
 62
     7
370
    25
100
AcDbSpline
210
0.0
220
0.0
230
1.0
 70
    24
 71
     3
 72
    12
 73
     8
 74
     0
 42
0.00000001
 43
0.0000000001
 40
0.0
 40
0.0
 40
0.0
 40
0.0
 40
0.1990354329399135
 40
0.3988984250504996
 40
0.6965276643102905
 40
0.8482691905336567
 40
1.0
 40
1.0
 40
1.0
 40
1.0
 10
3555.820712171003
 20
3475.820213402275
 30
0.0
 10
3556.826557407485
 20
3474.078038348137
 30
0.0
 10
3558.842430032527
 20
3470.586444539975
 30
0.0
 10
3562.473971486761
 20
3464.29643023145
 30
0.0
 10
3565.956941149852
 20
3458.263749813755
 30
0.0
 10
3569.236542506997
 20
3452.583313634609
 30
0.0
 10
3570.903213582258
 20
3449.696554652752
 30
0.0
 10
3571.736519691656
 20
3448.253226133016
 30
0.0
  0
SPLINE
  5
3AE
330
1F
100
AcDbEntity
  8
0
  6
Continuous
 62
     7
370
    25
100
AcDbSpline
210
0.0
220
0.0
230
1.0
 70
     8
 71
     3
 72
    14
 73
    10
 74
     0
 42
0.00000001
 43
0.0000000001
 40
0.0
 40
0.0
 40
0.0
 40
0.0
 40
0.2660290138729645
 40
0.4554925880838031
 40
0.5966269089302135
 40
0.7093734207374353
 40
0.8226985097351025
 40
0.9234383061008752
 40
1.0
 40
1.0
 40
1.0
 40
1.0
 10
3558.418788382372
 20
3480.320213402305
 30
0.0
 10
3557.955948907092
 20
3480.261186183822
 30
0.0
 10
3557.163479140753
 20
3480.160120288327
 30
0.0
 10
3556.234928263823
 20
3479.455966078984
 30
0.0
 10
3555.695182052161
 20
3478.673837088231
 30
0.0
 10
3555.42683101319
 20
3477.848324704594
 30
0.0
 10
3555.398261657356
 20
3477.033423181586
 30
0.0
 10
3555.556873572117
 20
3476.334402715842
 30
0.0
 10
3555.741142027292
 20
3475.975285926718
 30
0.0
 10
3555.820712171003
 20
3475.820213402275
 30
0.0
  0
LINE
  5
3AF
330
1F
100
AcDbEntity
  8
0
  6
Continuous
 62
     7
370
    25
100
AcDbLine
 10
3566.366230050954
 20
3480.320213402305
 30
0.0
 11
3558.418788382372
 21
3480.320213402305
 31
0.0
  0
SPLINE
  5
3B0
330
1F
100
AcDbEntity
  8
0
  6
Continuous
 62
     7
370
    25
100
AcDbSpline
210
0.0
220
0.0
230
1.0
 70
     8
 71
     3
 72
    12
 73
     8
 74
     0
 42
0.00000001
 43
0.0000000001
 40
0.0
 40
0.0
 40
0.0
 40
0.0
 40
0.1226556547367633
 40
0.2515518508855584
 40
0.4402222833467074
 40
0.7004170735758612
 40
1.0
 40
1.0
 40
1.0
 40
1.0
 10
3567.374439175264
 20
3479.320213402305
 30
0.0
 10
3567.367799374006
 20
3479.39827980181
 30
0.0
 10
3567.354181948053
 20
3479.558384505744
 30
0.0
 10
3567.254799778113
 20
3479.808544621431
 30
0.0
 10
3567.064127307162
 20
3480.064877844064
 30
0.0
 10
3566.753387083992
 20
3480.27613915871
 30
0.0
 10
3566.501197410557
 20
3480.304848618053
 30
0.0
 10
3566.366230050954
 20
3480.320213402305
 30
0.0
  0
ARC
  5
3B1
330
1F
100
AcDbEntity
  8
0
  6
Continuous
 62
     7
370
    25
100
AcDbCircle
 10
3628.278170954283
 20
3480.320213402305
 30
0.0
 40
60.91194090332966
100
AcDbArc
 50
180.9406752227308
 51
239.0593247772709
  0
LINE
  5
3B2
330
1F
100
AcDbEntity
  8
0
  6
Continuous
 62
     7
370
    25
100
AcDbLine
 10
3566.366230050954
 20
3480.320213402305
 30
0.0
 11
3572.978984703469
 21
3480.320213402305
 31
0.0
  0
SPLINE
  5
3B3
330
1F
100
AcDbEntity
  8
0
  6
Continuous
 62
     7
370
    25
100
AcDbSpline
210
0.0
220
0.0
230
1.0
 70
     8
 71
     3
 72
    16
 73
    12
 74
     0
 42
0.00000001
 43
0.0000000001
 40
0.0
 40
0.0
 40
0.0
 40
0.0
 40
0.15287068453876
 40
0.3007461564602376
 40
0.5003016697895835
 40
0.7642097030913911
 40
0.9147700618767093
 40
0.967575347386337
 40
0.987593489600451
 40
0.9963469576908444
 40
1.0
 40
1.0
 40
1.0
 40
1.0
 10
3572.978984703469
 20
3480.320213402305
 30
0.0
 10
3572.974126326682
 20
3480.313236669768
 30
0.0
 10
3572.96456832575
 20
3480.29951117687
 30
0.0
 10
3572.885666733301
 20
3480.186106811157
 30
0.0
 10
3572.741892882417
 20
3479.979089587818
 30
0.0
 10
3572.554583988985
 20
3479.708469236886
 30
0.0
 10
3572.403041484325
 20
3479.488700129854
 30
0.0
 10
3572.329791889528
 20
3479.382282761483
 30
0.0
 10
3572.303015485677
 20
3479.343356752921
 30
0.0
 10
3572.292371675718
 20
3479.327879574721
 30
0.0
 10
3572.288299323708
 20
3479.321957215018
 30
0.0
 10
3572.287100237605
 20
3479.320213402305
 30
0.0
  0
LINE
  5
3B4
330
1F
100
AcDbEntity
  8
0
  6
Continuous
 62
     7
370
    25
100
AcDbLine
 10
3572.287100237605
 20
3479.320213402305
 30
0.0
 11
3567.374439175264
 21
3479.320213402305
 31
0.0
  0
ARC
  5
3B5
330
1F
100
AcDbEntity
  8
0
  6
Continuous
 62
     7
370
    25
100
AcDbCircle
 10
3628.278170954283
 20
3480.320213402305
 30
0.0
 40
56.00000000000018
100
AcDbArc
 50
210.9408028636825
 51
238.9768066963151
  0
SPLINE
  5
3B6
330
1F
100
AcDbEntity
  8
0
  6
Continuous
 62
     7
370
    25
100
AcDbSpline
210
0.0
220
0.0
230
1.0
 70
     8
 71
     3
 72
    13
 73
     9
 74
     0
 42
0.00000001
 43
0.0000000001
 40
0.0
 40
0.0
 40
0.0
 40
0.0
 40
0.0046611651922729
 40
0.1938548874123517
 40
0.4090673705454582
 40
0.6100513477736098
 40
0.8049142503527907
 40
1.0
 40
1.0
 40
1.0
 40
1.0
 10
3580.247028483781
 20
3451.527690883806
 30
0.0
 10
3580.248550918037
 20
3451.529709043999
 30
0.0
 10
3580.311867987748
 20
3451.613643039296
 30
0.0
 10
3580.446010715258
 20
3451.791262945984
 30
0.0
 10
3580.629717234383
 20
3452.033947855815
 30
0.0
 10
3580.779028374787
 20
3452.230792413768
 30
0.0
 10
3580.879250666997
 20
3452.362719089671
 30
0.0
 10
3580.892238138364
 20
3452.379801784802
 30
0.0
 10
3580.898735585074
 20
3452.38834801356
 30
0.0
  0
ARC
  5
3B7
330
1F
100
AcDbEntity
  8
0
  6
Continuous
 62
     7
370
    25
100
AcDbCircle
 10
3628.278170954283
 20
3480.320213402305
 30
0.0
 40
55.00000000000017
100
AcDbArc
 50
210.5208646848311
 51
239.6891714617336
  0
SPLINE
  5
3B8
330
1F
100
AcDbEntity
  8
0
  6
Continuous
 62
     7
370
    25
100
AcDbSpline
210
0.0
220
0.0
230
1.0
 70
     8
 71
     3
 72
    16
 73
    12
 74
     0
 42
0.00000001
 43
0.0000000001
 40
0.0
 40
0.0
 40
0.0
 40
0.0
 40
0.0036546657631978
 40
0.0122997072660231
 40
0.032170576750948
 40
0.0847325013563583
 40
0.2358261220646768
 40
0.4996639652924048
 40
0.6991759891143172
 40
0.847068727178669
 40
0.9999999999999998
 40
0.9999999999999998
 40
0.9999999999999998
 40
0.9999999999999998
 10
3599.41661019216
 20
3432.330523776572
 30
0.0
 10
3599.41853648014
 20
3432.331400209831
 30
0.0
 10
3599.425019365251
 20
3432.334349829091
 30
0.0
 10
3599.441974572375
 20
3432.342066091177
 30
0.0
 10
3599.48469185646
 20
3432.361515869948
 30
0.0
 10
3599.602268952101
 20
3432.415117499877
 30
0.0
 10
3599.845056881394
 20
3432.526187251552
 30
0.0
 10
3600.144005590575
 20
3432.663951831616
 30
0.0
 10
3600.372346867655
 20
3432.769872461314
 30
0.0
 10
3600.497362710129
 20
3432.828065393332
 30
0.0
 10
3600.512488087883
 20
3432.83511799306
 30
0.0
 10
3600.520177445073
 20
3432.838703355312
 30
0.0
  0
ARC
  5
3B9
330
1F
100
AcDbEntity
  8
0
  6
Continuous
 62
     7
370
    25
100
AcDbCircle
 10
3600.368770207751
 20
3432.579713300511
 30
0.0
 40
0.3000000000001793
100
AcDbArc
 50
329.9999999999002
 51
59.68917146182196
  0
SPLINE
  5
3BA
330
1F
100
AcDbEntity
  8
0
  6
Continuous
 62
     7
370
    25
100
AcDbSpline
210
0.0
220
0.0
230
1.0
 70
     8
 71
     3
 72
    16
 73
    12
 74
     0
 42
0.00000001
 43
0.0000000001
 40
0.0
 40
0.0
 40
0.0
 40
0.0
 40
0.1529312728221151
 40
0.3008240108870054
 40
0.5003360347091089
 40
0.7641738779362212
 40
0.9152674986400255
 40
0.9678294232463052
 40
0.9877002927323871
 40
0.9963453342367895
 40
1.0
 40
1.0
 40
1.0
 40
1.0
 10
3573.278980288936
 20
3480.021840888723
 30
0.0
 10
3573.272030595549
 20
3480.016974391182
 30
0.0
 10
3573.258360176145
 20
3480.007401729671
 30
0.0
 10
3573.145455697459
 20
3479.928231300224
 30
0.0
 10
3572.939555102817
 20
3479.783442268394
 30
0.0
 10
3572.670773122151
 20
3479.593427381853
 30
0.0
 10
3572.453189930963
 20
3479.438701743194
 30
0.0
 10
3572.347981009939
 20
3479.363677806436
 30
0.0
 10
3572.309778365383
 20
3479.33640844262
 30
0.0
 10
3572.294618282831
 20
3479.325582933567
 30
0.0
 10
3572.288822395063
 20
3479.321443400002
 30
0.0
 10
3572.287100237605
 20
3479.320213402305
 30
0.0
  0
ARC
  5
3BB
330
1F
100
AcDbEntity
  8
0
  6
Continuous
 62
     7
370
    25
100
AcDbCircle
 10
3572.978984703469
 20
3480.020213402285
 30
0.0
 40
0.3000000000206455
100
AcDbArc
 50
0.3108285382971956
 51
90.0
  0
ARC
  5
3BC
330
1F
100
AcDbEntity
  8
0
  6
Continuous
 62
     7
370
    25
100
AcDbCircle
 10
3628.278170954283
 20
3480.320213402305
 30
0.0
 40
54.99999999999994
100
AcDbArc
 50
180.310828538289
 51
209.4791086467579
  0
SPLINE
  5
3BD
330
1F
100
AcDbEntity
  8
0
  6
Continuous
 62
     7
370
    25
100
AcDbSpline
210
0.0
220
0.0
230
1.0
 70
     8
 71
     3
 72
    13
 73
     9
 74
     0
 42
0.00000001
 43
0.0000000001
 40
0.0
 40
0.0
 40
0.0
 40
0.0
 40
0.1950870218984289
 40
0.3899512097008391
 40
0.5909361417550471
 40
0.8061487093031221
 40
0.9953387603440763
 40
1.0
 40
1.0
 40
1.0
 40
1.0
 10
3580.398735670094
 20
3453.254373735538
 30
0.0
 10
3580.388085692723
 20
3453.253019760939
 30
0.0
 10
3580.366797902696
 20
3453.250313358293
 30
0.0
 10
3580.202434735519
 20
3453.229479543208
 30
0.0
 10
3579.95730672141
 20
3453.198591466789
 30
0.0
 10
3579.655284425501
 20
3453.160835854827
 30
0.0
 10
3579.434392602195
 20
3453.133472340545
 30
0.0
 10
3579.330047481864
 20
3453.12060410848
 30
0.0
 10
3579.327538457493
 20
3453.120294686172
 30
0.0
  0
ARC
  5
3BE
330
1F
100
AcDbEntity
  8
0
  6
Continuous
 62
     7
370
    25
100
AcDbCircle
 10
3628.278170954283
 20
3480.320213402305
 30
0.0
 40
55.9999999999997
100
AcDbArc
 50
181.0231933036869
 51
209.0591859267844
  0
LINE
  5
3BF
330
1F
100
AcDbEntity
  8
0
  6
Continuous
 62
     7
370
    25
100
AcDbLine
 10
3580.398735670094
 20
3453.254373735538
 30
0.0
 11
3580.215729224614
 21
3452.57134973177
 31
0.0
  0
LINE
  5
3C0
330
1F
100
AcDbEntity
  8
0
  6
Continuous
 62
     7
370
    25
100
AcDbLine
 10
3578.990993321574
 20
3451.864227417171
 30
0.0
 11
3580.215729224614
 21
3452.57134973177
 31
0.0
  0
LINE
  5
3C1
330
1F
100
AcDbEntity
  8
0
  6
Continuous
 62
     7
370
    25
100
AcDbLine
 10
3578.990993321574
 20
3451.864227417171
 30
0.0
 11
3579.327538457493
 21
3453.120294686172
 31
0.0
  0
LINE
  5
3C2
330
1F
100
AcDbEntity
  8
0
  6
Continuous
 62
     7
370
    25
100
AcDbLine
 10
3580.247028483781
 20
3451.527690883806
 30
0.0
 11
3578.990993321574
 21
3451.864227417171
 31
0.0
  0
LINE
  5
3C3
330
1F
100
AcDbEntity
  8
0
  6
Continuous
 62
     7
370
    25
100
AcDbLine
 10
3580.215729224614
 20
3452.57134973177
 30
0.0
 11
3580.898735585074
 21
3452.38834801356
 31
0.0
  0
LINE
  5
3C4
330
1F
100
AcDbEntity
  8
0
  6
Continuous
 62
     7
370
    25
100
AcDbLine
 10
4823.278170954283
 20
3407.320213402304
 30
0.0
 11
4833.278170954283
 21
3407.320213402304
 31
0.0
  0
LINE
  5
3C5
330
1F
100
AcDbEntity
  8
0
  6
Continuous
 62
     7
370
    25
100
AcDbLine
 10
4820.378170954284
 20
3408.320213402304
 30
0.0
 11
4836.178170954283
 21
3408.320213402304
 31
0.0
  0
LINE
  5
3C6
330
1F
100
AcDbEntity
  8
0
  6
Continuous
 62
     7
370
    25
100
AcDbLine
 10
3629.719834838886
 20
3407.320213402304
 30
0.0
 11
3633.278170954283
 21
3407.320213402304
 31
0.0
  0
LINE
  5
3C7
330
1F
100
AcDbEntity
  8
0
  6
Continuous
 62
     7
370
    25
100
AcDbLine
 10
3623.278170954283
 20
3407.320213402304
 30
0.0
 11
3629.719834838886
 21
3407.320213402304
 31
0.0
  0
LINE
  5
3C8
330
1F
100
AcDbEntity
  8
0
  6
Continuous
 62
     7
370
    25
100
AcDbLine
 10
3630.555999891956
 20
3408.320213402304
 30
0.0
 11
3636.178170954283
 21
3408.320213402304
 31
0.0
  0
LINE
  5
3C9
330
1F
100
AcDbEntity
  8
0
  6
Continuous
 62
     7
370
    25
100
AcDbLine
 10
3620.378170954283
 20
3408.320213402304
 30
0.0
 11
3630.555999891956
 21
3408.320213402304
 31
0.0
  0
ARC
  5
3CA
330
1F
100
AcDbEntity
  8
0
  6
Continuous
 62
     7
370
    25
100
AcDbCircle
 10
3628.278170954283
 20
3480.320213402305
 30
0.0
 40
60.75000000000025
100
AcDbArc
 50
240.0000000000008
 51
251.4026312057492
  0
ARC
  5
3CB
330
1F
100
AcDbEntity
  8
0
  6
Continuous
 62
     7
370
    25
100
AcDbCircle
 10
3628.278170954283
 20
3480.320213402305
 30
0.0
 40
60.75
100
AcDbArc
 50
295.1295642611132
 51
180.0
  0
LINE
  5
3CC
330
1F
100
AcDbEntity
  8
0
  6
Continuous
 62
     7
370
    25
100
AcDbLine
 10
4516.778170954282
 20
3407.320213402305
 30
0.0
 11
4456.778170954283
 21
3407.320213402305
 31
0.0
  0
LINE
  5
3CD
330
1F
100
AcDbEntity
  8
0
  6
Continuous
 62
     7
370
    25
100
AcDbLine
 10
4536.778170954282
 20
3407.320213402305
 30
0.0
 11
4516.778170954282
 21
3407.320213402305
 31
0.0
  0
LINE
  5
3CE
330
1F
100
AcDbEntity
  8
0
  6
Continuous
 62
     7
370
    25
100
AcDbLine
 10
4516.778170954282
 20
3398.320213402305
 30
0.0
 11
4536.778170954282
 21
3398.320213402305
 31
0.0
  0
LINE
  5
3CF
330
1F
100
AcDbEntity
  8
0
  6
Continuous
 62
     7
370
    25
100
AcDbLine
 10
4456.778170954283
 20
3398.320213402305
 30
0.0
 11
4516.778170954282
 21
3398.320213402305
 31
0.0
  0
LINE
  5
3D0
330
1F
100
AcDbEntity
  8
0
  6
Continuous
 62
     7
370
    25
100
AcDbLine
 10
4536.778170954282
 20
3440.320213402305
 30
0.0
 11
4456.778170954283
 21
3440.320213402305
 31
0.0
  0
LINE
  5
3D1
330
1F
100
AcDbEntity
  8
0
  6
Continuous
 62
     7
370
    25
100
AcDbLine
 10
4456.778170954283
 20
3431.320213402305
 30
0.0
 11
4536.778170954282
 21
3431.320213402305
 31
0.0
  0
ENDSEC
  0
SECTION
  2
OBJECTS
  0
DICTIONARY
  5
C
330
0
100
AcDbDictionary
281
     1
  3
ACAD_CIP_PREVIOUS_PRODUCT_INFO
350
3E1
  3
ACAD_COLOR
350
3DB
  3
ACAD_DETAILVIEWSTYLE
350
3D6
  3
ACAD_GROUP
350
D
  3
ACAD_LAYOUT
350
1A
  3
ACAD_MATERIAL
350
43
  3
ACAD_MLEADERSTYLE
350
5B
  3
ACAD_MLINESTYLE
350
17
  3
ACAD_PLOTSETTINGS
350
19
  3
ACAD_PLOTSTYLENAME
350
E
  3
ACAD_RENDER_ACTIVE_RAPIDRT_SETTINGS
350
3E9
  3
ACAD_RENDER_RAPIDRT_SETTINGS
350
3E2
  3
ACAD_SCALELIST
350
47
  3
ACAD_SECTIONVIEWSTYLE
350
3D7
  3
ACAD_TABLESTYLE
350
59
  3
ACAD_VISUALSTYLE
350
2A
  3
ACDB_RECOMPOSE_DATA
350
3EF
  3
AcDbVariableDictionary
350
3D2
  0
SUN
  5
5D
330
29
100
AcDbSun
 90
        1
290
     0
 63
     7
421
 16777215
 40
1.0
291
     1
 91
  2455826
 92
 54000000
292
     0
 70
     0
 71
   256
280
     1
  0
XRECORD
  5
3E1
102
{ACAD_REACTORS
330
C
102
}
330
C
100
AcDbXrecord
280
     1
300
ACD
300
2020
300

  0
DICTIONARY
  5
3DB
102
{ACAD_REACTORS
330
C
102
}
330
C
100
AcDbDictionary
281
     1
  0
DICTIONARY
  5
3D6
102
{ACAD_REACTORS
330
C
102
}
330
C
100
AcDbDictionary
281
     1
  3
Metric50
350
3DD
  0
DICTIONARY
  5
D
102
{ACAD_REACTORS
330
C
102
}
330
C
100
AcDbDictionary
281
     1
  0
DICTIONARY
  5
1A
102
{ACAD_REACTORS
330
C
102
}
330
C
100
AcDbDictionary
281
     1
  3
Layout1
350
1E
  3
Layout2
350
26
  3
Model
350
22
  0
DICTIONARY
  5
43
102
{ACAD_REACTORS
330
C
102
}
330
C
100
AcDbDictionary
281
     1
  3
ByBlock
350
45
  3
ByLayer
350
44
  3
Global
350
46
  0
DICTIONARY
  5
5B
102
{ACAD_REACTORS
330
C
102
}
330
C
100
AcDbDictionary
281
     1
  3
Standard
350
5C
  0
DICTIONARY
  5
17
102
{ACAD_REACTORS
330
C
102
}
330
C
100
AcDbDictionary
281
     1
  3
Standard
350
18
  0
DICTIONARY
  5
19
102
{ACAD_REACTORS
330
C
102
}
330
C
100
AcDbDictionary
281
     1
  0
ACDBDICTIONARYWDFLT
  5
E
102
{ACAD_REACTORS
330
C
102
}
330
C
100
AcDbDictionary
281
     1
  3
Normal
350
F
100
AcDbDictionaryWithDefault
340
F
  0
RAPIDRTRENDERSETTINGS
  5
3E9
102
{ACAD_REACTORS
330
C
102
}
330
C
100
AcDbRenderSettings
 90
        2
  1
Medium
290
     1
290
     0
290
     1
290
     1
  1

  1
Applies 5 rendering levels
 90
        0
100
AcDbRapidRTRenderSettings
 90
        3
 70
     0
 90
        5
 90
        1
 70
     1
 70
     2
 40
3.0
 40
3.0
290
     1
  0
DICTIONARY
  5
3E2
102
{ACAD_REACTORS
330
C
102
}
330
C
100
AcDbDictionary
281
     1
  3
Coffee-Break Quality
350
3E6
  3
High
350
3E5
  3
Low
350
3E3
  3
Lunch Quality
350
3E7
  3
Medium
350
3E4
  3
Overnight Quality
350
3E8
  0
DICTIONARY
  5
47
102
{ACAD_REACTORS
330
C
102
}
330
C
100
AcDbDictionary
281
     1
  3
A0
350
48
  3
A1
350
49
  3
A2
350
4A
  3
A3
350
4B
  3
A4
350
4C
  3
A5
350
4D
  3
A6
350
4E
  3
A7
350
4F
  3
A8
350
50
  3
A9
350
51
  3
B0
350
52
  3
B1
350
53
  3
B2
350
54
  3
B3
350
55
  3
B4
350
56
  3
B5
350
57
  3
B6
350
58
  0
DICTIONARY
  5
3D7
102
{ACAD_REACTORS
330
C
102
}
330
C
100
AcDbDictionary
281
     1
  3
Metric50
350
3DC
  0
DICTIONARY
  5
59
102
{ACAD_REACTORS
330
C
102
}
330
C
100
AcDbDictionary
281
     1
  3
Standard
350
5A
  0
DICTIONARY
  5
2A
102
{ACAD_REACTORS
330
C
102
}
330
C
100
AcDbDictionary
281
     1
  3
2dWireframe
350
2F
  3
Basic
350
32
  3
Brighten
350
36
  3
ColorChange
350
3A
  3
Conceptual
350
34
  3
Dim
350
35
  3
EdgeColorOff
350
3D
  3
Facepattern
350
39
  3
Flat
350
2B
  3
FlatWithEdges
350
2C
  3
Gouraud
350
2D
  3
GouraudWithEdges
350
2E
  3
Hidden
350
31
  3
JitterOff
350
3B
  3
Linepattern
350
38
  3
OverhangOff
350
3C
  3
Realistic
350
33
  3
Shaded
350
42
  3
Shaded with edges
350
41
  3
Shades of Gray
350
3E
  3
Sketchy
350
3F
  3
Thicken
350
37
  3
Wireframe
350
30
  3
X-Ray
350
40
  0
XRECORD
  5
3EF
102
{ACAD_REACTORS
330
C
102
}
330
C
100
AcDbXrecord
280
     1
 90
        1
330
5A
  0
DICTIONARY
  5
3D2
102
{ACAD_REACTORS
330
C
102
}
330
C
100
AcDbDictionary
281
     1
  3
CANNOSCALE
350
3D3
  3
CENTEREXE
350
3D8
  3
CENTERLTYPEFILE
350
3D9
  3
CMLEADERSTYLE
350
3D5
  3
CTABLESTYLE
350
3D4
  3
CVIEWDETAILSTYLE
350
3EA
  3
CVIEWSECTIONSTYLE
350
3EB
  0
ACDBDETAILVIEWSTYLE
  5
3DD
102
{ACAD_REACTORS
330
3D6
102
}
330
3D6
100
AcDbModelDocViewStyle
 70
     0
  3
Metric50
290
     1
300
Metric50
 90
        0
100
AcDbDetailViewStyle
 70
     0
 71
     0
 90
        3
 71
     1
340
11
 62
   256
 40
5.0
340
0
 62
   256
 40
5.0
300

 40
0.0
280
     1
 71
     2
340
16
 90
       25
 62
   256
 71
     3
340
11
 62
   256
 40
5.0
 90
        0
 40
15.0
 90
        1
300
%<\AcVar ViewDetailId>% (%<\AcVar ViewScale \f "%sn">%)
 71
     4
340
16
 90
       25
 62
   256
340
16
 90
       25
 62
   256
280
     0
  0
LAYOUT
  5
1E
102
{ACAD_REACTORS
330
1A
102
}
330
1A
100
AcDbPlotSettings
  1

  2
none_device
  4

  6

 40
0.0
 41
0.0
 42
0.0
 43
0.0
 44
0.0
 45
0.0
 46
0.0
 47
0.0
 48
0.0
 49
0.0
140
0.0
141
0.0
142
1.0
143
1.0
 70
   688
 72
     1
 73
     0
 74
     5
  7

 75
    16
147
1.0
 76
     0
 77
     2
 78
   300
148
0.0
149
0.0
100
AcDbLayout
  1
Layout1
 70
     1
 71
     1
 10
0.0
 20
0.0
 11
420.0
 21
297.0
 12
0.0
 22
0.0
 32
0.0
 14
1.000000000000000E+20
 24
1.000000000000000E+20
 34
1.000000000000000E+20
 15
-1.000000000000000E+20
 25
-1.000000000000000E+20
 35
-1.000000000000000E+20
146
0.0
 13
0.0
 23
0.0
 33
0.0
 16
1.0
 26
0.0
 36
0.0
 17
0.0
 27
1.0
 37
0.0
 76
     0
330
1B
  0
LAYOUT
  5
26
102
{ACAD_REACTORS
330
1A
102
}
330
1A
100
AcDbPlotSettings
  1

  2
none_device
  4

  6

 40
0.0
 41
0.0
 42
0.0
 43
0.0
 44
0.0
 45
0.0
 46
0.0
 47
0.0
 48
0.0
 49
0.0
140
0.0
141
0.0
142
1.0
143
1.0
 70
   688
 72
     1
 73
     0
 74
     5
  7

 75
    16
147
1.0
 76
     0
 77
     2
 78
   300
148
0.0
149
0.0
100
AcDbLayout
  1
Layout2
 70
     1
 71
     2
 10
0.0
 20
0.0
 11
0.0
 21
0.0
 12
0.0
 22
0.0
 32
0.0
 14
0.0
 24
0.0
 34
0.0
 15
0.0
 25
0.0
 35
0.0
146
0.0
 13
0.0
 23
0.0
 33
0.0
 16
1.0
 26
0.0
 36
0.0
 17
0.0
 27
1.0
 37
0.0
 76
     0
330
23
  0
LAYOUT
  5
22
102
{ACAD_REACTORS
330
1A
102
}
330
1A
100
AcDbPlotSettings
  1

  2
none_device
  4
Letter_(8.50_x_11.00_Inches)
  6

 40
6.349999999999999
 41
6.349999999999999
 42
6.350005079999999
 43
6.350005079999999
 44
215.9
 45
279.4
 46
0.0
 47
0.0
 48
0.0
 49
0.0
140
0.0
141
0.0
142
1.0
143
1.0
 70
  1712
 72
     1
 73
     0
 74
     0
  7

 75
     0
147
1.0
 76
     0
 77
     2
 78
   300
148
0.0
149
0.0
100
AcDbLayout
  1
Model
 70
     1
 71
     0
 10
0.0
 20
0.0
 11
8400.0
 21
5940.0
 12
0.0
 22
0.0
 32
0.0
 14
0.0
 24
0.0
 34
0.0
 15
8400.0
 25
5940.0
 35
0.0
146
0.0
 13
0.0
 23
0.0
 33
0.0
 16
1.0
 26
0.0
 36
0.0
 17
0.0
 27
1.0
 37
0.0
 76
     0
330
1F
331
29
  0
MATERIAL
  5
45
102
{ACAD_REACTORS
330
43
102
}
330
43
100
AcDbMaterial
  1
ByBlock
 73
     1
 78
     1
172
     1
176
     1
270
     1
274
     1
  0
MATERIAL
  5
44
102
{ACAD_REACTORS
330
43
102
}
330
43
100
AcDbMaterial
  1
ByLayer
 73
     1
 78
     1
172
     1
176
     1
270
     1
274
     1
  0
MATERIAL
  5
46
102
{ACAD_REACTORS
330
43
102
}
330
43
100
AcDbMaterial
  1
Global
 73
     1
 78
     1
172
     1
176
     1
270
     1
274
     1
  0
MLEADERSTYLE
  5
5C
102
{ACAD_REACTORS
330
5B
102
}
330
5B
100
AcDbMLeaderStyle
179
     2
170
     2
171
     1
172
     0
 90
        2
 40
0.0
 41
0.0
173
     1
 91
-1056964608
340
14
 92
       -2
290
     1
 42
2.0
291
     1
 43
8.0
  3
Standard
 44
4.0
300

342
11
174
     1
178
     6
175
     1
176
     0
 93
-1056964608
 45
4.0
292
     0
297
     0
 46
4.0
 94
-1056964608
 47
1.0
 49
1.0
140
1.0
293
     1
141
0.0
294
     1
177
     0
142
1.0
295
     0
296
     0
143
3.75
271
     0
272
     9
273
     9
298
     0
  0
MLINESTYLE
  5
18
102
{ACAD_REACTORS
330
17
102
}
330
17
100
AcDbMlineStyle
  2
STANDARD
 70
     0
  3

 62
   256
 51
90.0
 52
90.0
 71
     2
 49
0.5
 62
   256
  6
BYLAYER
 49
-0.5
 62
   256
  6
BYLAYER
  0
ACDBPLACEHOLDER
  5
F
102
{ACAD_REACTORS
330
E
102
}
330
E
  0
RAPIDRTRENDERSETTINGS
  5
3E6
102
{ACAD_REACTORS
330
3E2
102
}
330
3E2
100
AcDbRenderSettings
 90
        2
  1
Coffee-Break Quality
290
     1
290
     0
290
     1
290
     1
  1

  1
Renders for 10 minutes
 90
        3
100
AcDbRapidRTRenderSettings
 90
        3
 70
     1
 90
        1
 90
       10
 70
     1
 70
     2
 40
3.0
 40
3.0
290
     1
  0
RAPIDRTRENDERSETTINGS
  5
3E5
102
{ACAD_REACTORS
330
3E2
102
}
330
3E2
100
AcDbRenderSettings
 90
        2
  1
High
290
     1
290
     0
290
     1
290
     1
  1

  1
Applies 10 rendering levels
 90
        2
100
AcDbRapidRTRenderSettings
 90
        3
 70
     0
 90
       10
 90
        1
 70
     2
 70
     2
 40
3.0
 40
3.0
290
     1
  0
RAPIDRTRENDERSETTINGS
  5
3E3
102
{ACAD_REACTORS
330
3E2
102
}
330
3E2
100
AcDbRenderSettings
 90
        2
  1
Low
290
     1
290
     0
290
     1
290
     1
  1

  1
Applies 1 rendering level
 90
        0
100
AcDbRapidRTRenderSettings
 90
        3
 70
     0
 90
        1
 90
        1
 70
     0
 70
     2
 40
3.0
 40
3.0
290
     1
  0
RAPIDRTRENDERSETTINGS
  5
3E7
102
{ACAD_REACTORS
330
3E2
102
}
330
3E2
100
AcDbRenderSettings
 90
        2
  1
Lunch Quality
290
     1
290
     0
290
     1
290
     1
  1

  1
Renders for 60 minutes
 90
        4
100
AcDbRapidRTRenderSettings
 90
        3
 70
     1
 90
        1
 90
       60
 70
     2
 70
     2
 40
3.0
 40
3.0
290
     1
  0
RAPIDRTRENDERSETTINGS
  5
3E4
102
{ACAD_REACTORS
330
3E2
102
}
330
3E2
100
AcDbRenderSettings
 90
        2
  1
Medium
290
     1
290
     0
290
     1
290
     1
  1

  1
Applies 5 rendering levels
 90
        1
100
AcDbRapidRTRenderSettings
 90
        3
 70
     0
 90
        5
 90
        1
 70
     1
 70
     2
 40
3.0
 40
3.0
290
     1
  0
RAPIDRTRENDERSETTINGS
  5
3E8
102
{ACAD_REACTORS
330
3E2
102
}
330
3E2
100
AcDbRenderSettings
 90
        2
  1
Overnight Quality
290
     1
290
     0
290
     1
290
     1
  1

  1
Renders for 12 hours
 90
        5
100
AcDbRapidRTRenderSettings
 90
        3
 70
     1
 90
        1
 90
      720
 70
     2
 70
     2
 40
3.0
 40
3.0
290
     1
  0
SCALE
  5
48
102
{ACAD_REACTORS
330
47
102
}
330
47
100
AcDbScale
 70
     0
300
1:1
140
1.0
141
1.0
290
     1
  0
SCALE
  5
49
102
{ACAD_REACTORS
330
47
102
}
330
47
100
AcDbScale
 70
     0
300
1:2
140
1.0
141
2.0
290
     0
  0
SCALE
  5
4A
102
{ACAD_REACTORS
330
47
102
}
330
47
100
AcDbScale
 70
     0
300
1:4
140
1.0
141
4.0
290
     0
  0
SCALE
  5
4B
102
{ACAD_REACTORS
330
47
102
}
330
47
100
AcDbScale
 70
     0
300
1:5
140
1.0
141
5.0
290
     0
  0
SCALE
  5
4C
102
{ACAD_REACTORS
330
47
102
}
330
47
100
AcDbScale
 70
     0
300
1:8
140
1.0
141
8.0
290
     0
  0
SCALE
  5
4D
102
{ACAD_REACTORS
330
47
102
}
330
47
100
AcDbScale
 70
     0
300
1:10
140
1.0
141
10.0
290
     0
  0
SCALE
  5
4E
102
{ACAD_REACTORS
330
47
102
}
330
47
100
AcDbScale
 70
     0
300
1:16
140
1.0
141
16.0
290
     0
  0
SCALE
  5
4F
102
{ACAD_REACTORS
330
47
102
}
330
47
100
AcDbScale
 70
     0
300
1:20
140
1.0
141
20.0
290
     0
  0
SCALE
  5
50
102
{ACAD_REACTORS
330
47
102
}
330
47
100
AcDbScale
 70
     0
300
1:30
140
1.0
141
30.0
290
     0
  0
SCALE
  5
51
102
{ACAD_REACTORS
330
47
102
}
330
47
100
AcDbScale
 70
     0
300
1:40
140
1.0
141
40.0
290
     0
  0
SCALE
  5
52
102
{ACAD_REACTORS
330
47
102
}
330
47
100
AcDbScale
 70
     0
300
1:50
140
1.0
141
50.0
290
     0
  0
SCALE
  5
53
102
{ACAD_REACTORS
330
47
102
}
330
47
100
AcDbScale
 70
     0
300
1:100
140
1.0
141
100.0
290
     0
  0
SCALE
  5
54
102
{ACAD_REACTORS
330
47
102
}
330
47
100
AcDbScale
 70
     0
300
2:1
140
2.0
141
1.0
290
     0
  0
SCALE
  5
55
102
{ACAD_REACTORS
330
47
102
}
330
47
100
AcDbScale
 70
     0
300
4:1
140
4.0
141
1.0
290
     0
  0
SCALE
  5
56
102
{ACAD_REACTORS
330
47
102
}
330
47
100
AcDbScale
 70
     0
300
8:1
140
8.0
141
1.0
290
     0
  0
SCALE
  5
57
102
{ACAD_REACTORS
330
47
102
}
330
47
100
AcDbScale
 70
     0
300
10:1
140
10.0
141
1.0
290
     0
  0
SCALE
  5
58
102
{ACAD_REACTORS
330
47
102
}
330
47
100
AcDbScale
 70
     0
300
100:1
140
100.0
141
1.0
290
     0
  0
ACDBSECTIONVIEWSTYLE
  5
3DC
102
{ACAD_REACTORS
330
3D7
102
}
330
3D7
100
AcDbModelDocViewStyle
 70
     0
  3
Metric50
290
     1
300
Metric50
 90
        0
100
AcDbSectionViewStyle
 70
     0
 71
     0
 90
      102
 71
     1
340
11
 62
   256
 40
5.0
340
0
340
0
 62
   256
 40
5.0
300
I, O, Q, S, X, Z
 40
10.0
 90
        0
 40
2.5
 90
        0
 71
     2
340
16
 90
       25
 62
   256
340
16
 90
       50
 62
   256
 40
5.0
 40
2.5
 40
5.0
 71
     3
340
11
 62
   256
 40
5.0
 90
        0
 40
15.0
 90
        1
300
%<\AcVar ViewSectionStartId>%-%<\AcVar ViewSectionEndId>% (%<\AcVar ViewScale \f "%sn">%)
 71
     4
 62
   256
 62
   257
300
ANSI31
 40
1.0
 90
        0
290
     0
290
     0
 90
        6
 40
0.0
 40
1.570796326794896
 40
0.2617993877991494
 40
1.308996938995747
 40
-0.2617993877991494
 40
1.832595714594046
  0
TABLESTYLE
  5
5A
102
{ACAD_XDICTIONARY
360
3ED
102
}
102
{ACAD_REACTORS
330
59
102
}
330
59
100
AcDbTableStyle
280
     0
  3
Standard
 70
     0
 71
     0
 40
1.5
 41
1.5
280
     0
281
     0
  7
Standard
140
4.5
170
     2
 62
     0
 63
     7
283
     0
 90
        4
 91
        0
  1

274
    -2
284
     1
 64
     0
275
    -2
285
     1
 65
     0
276
    -2
286
     1
 66
     0
277
    -2
287
     1
 67
     0
278
    -2
288
     1
 68
     0
279
    -2
289
     1
 69
     0
  7
Standard
140
6.0
170
     5
 62
     0
 63
     7
283
     0
 90
        4
 91
        0
  1

274
    -2
284
     1
 64
     0
275
    -2
285
     1
 65
     0
276
    -2
286
     1
 66
     0
277
    -2
287
     1
 67
     0
278
    -2
288
     1
 68
     0
279
    -2
289
     1
 69
     0
  7
Standard
140
4.5
170
     5
 62
     0
 63
     7
283
     0
 90
        4
 91
        0
  1

274
    -2
284
     1
 64
     0
275
    -2
285
     1
 65
     0
276
    -2
286
     1
 66
     0
277
    -2
287
     1
 67
     0
278
    -2
288
     1
 68
     0
279
    -2
289
     1
 69
     0
  0
VISUALSTYLE
  5
2F
102
{ACAD_REACTORS
330
2A
102
}
330
2A
100
AcDbVisualStyle
  2
2dWireframe
 70
     4
177
     3
291
     0
 70
    58
 90
        0
176
     1
 90
        2
176
     1
 90
        0
176
     1
 90
        0
176
     1
 40
0.6
176
     1
 40
30.0
176
     1
 62
     7
420
 16777215
176
     1
 90
        1
176
     1
 90
        4
176
     1
 62
     7
176
     1
 62
   257
176
     1
 90
        1
176
     1
 90
        1
176
     1
 40
1.0
176
     1
 90
        0
176
     1
 62
   257
176
     1
 40
1.0
176
     1
 90
        1
176
     1
 90
        6
176
     1
 90
        2
176
     1
 62
     7
176
     1
 90
        5
176
     1
 90
        0
176
     1
 90
        0
176
     1
290
     0
176
     1
 90
        1
176
     1
 40
0.0
176
     1
 90
        0
176
     1
290
     1
176
     1
290
     1
176
     1
290
     0
176
     1
290
     0
176
     1
290
     0
176
     1
290
     0
176
     1
290
     0
176
     1
290
     0
176
     1
290
     0
176
     1
 90
       50
176
     1
 40
0.0
176
     1
 40
1.0
176
     1
 90
        0
176
     1
 62
    18
420
        0
176
     1
 90
       50
176
     1
 90
        3
176
     1
 62
     5
420
      255
176
     1
290
     0
176
     1
 90
       50
176
     1
 90
       50
176
     1
 90
       50
176
     1
290
     0
176
     1
 90
       50
176
     1
 62
   256
176
     0
 40
1.0
176
     0
 90
        2
176
     1
  1
strokes_ogs.tif
176
     1
290
     0
176
     1
 40
1.0
176
     1
 40
1.0
176
     1
  0
VISUALSTYLE
  5
32
102
{ACAD_REACTORS
330
2A
102
}
330
2A
100
AcDbVisualStyle
  2
Basic
 70
     7
177
     3
291
     1
 70
    58
 90
        1
176
     1
 90
        0
176
     1
 90
        1
176
     1
 90
        0
176
     1
 40
0.6
176
     1
 40
30.0
176
     1
 62
     7
420
 16777215
176
     1
 90
        0
176
     1
 90
        4
176
     1
 62
     7
176
     1
 62
   257
176
     1
 90
        1
176
     1
 90
        1
176
     1
 40
1.0
176
     1
 90
        8
176
     1
 62
     7
176
     1
 40
1.0
176
     1
 90
        1
176
     1
 90
        6
176
     1
 90
        2
176
     1
 62
     7
176
     1
 90
        5
176
     1
 90
        0
176
     1
 90
        0
176
     1
290
     0
176
     1
 90
        1
176
     1
 40
0.0
176
     1
 90
        0
176
     1
290
     0
176
     1
290
     1
176
     1
290
     1
176
     1
290
     0
176
     1
290
     0
176
     1
290
     0
176
     1
290
     0
176
     1
290
     0
176
     1
290
     0
176
     1
 90
       50
176
     1
 40
0.0
176
     1
 40
1.0
176
     1
 90
        0
176
     1
 62
    18
420
        0
176
     1
 90
       50
176
     1
 90
        3
176
     1
 62
     5
420
      255
176
     1
290
     0
176
     1
 90
       50
176
     1
 90
       50
176
     1
 90
       50
176
     1
290
     0
176
     1
 90
       50
176
     1
 62
   256
176
     0
 40
1.0
176
     0
 90
        2
176
     1
  1
strokes_ogs.tif
176
     1
290
     0
176
     1
 40
1.0
176
     1
 40
1.0
176
     1
  0
VISUALSTYLE
  5
36
102
{ACAD_REACTORS
330
2A
102
}
330
2A
100
AcDbVisualStyle
  2
Brighten
 70
    12
177
     3
291
     1
 70
    58
 90
        2
176
     1
 90
        2
176
     1
 90
        0
176
     1
 90
        0
176
     1
 40
0.6
176
     1
 40
30.0
176
     1
 62
     7
420
 16777215
176
     1
 90
        1
176
     1
 90
        4
176
     1
 62
     7
176
     1
 62
   257
176
     1
 90
        1
176
     1
 90
        1
176
     1
 40
1.0
176
     1
 90
        8
176
     1
 62
     7
176
     1
 40
1.0
176
     1
 90
        1
176
     1
 90
        6
176
     1
 90
        2
176
     1
 62
     7
176
     1
 90
        5
176
     1
 90
        0
176
     1
 90
        0
176
     1
290
     0
176
     1
 90
        1
176
     1
 40
50.0
176
     1
 90
        0
176
     1
290
     0
176
     1
290
     1
176
     1
290
     1
176
     1
290
     0
176
     1
290
     0
176
     1
290
     0
176
     1
290
     0
176
     1
290
     0
176
     1
290
     0
176
     1
 90
       50
176
     1
 40
0.0
176
     1
 40
1.0
176
     1
 90
        0
176
     1
 62
    18
420
        0
176
     1
 90
       50
176
     1
 90
        3
176
     1
 62
     5
420
      255
176
     1
290
     0
176
     1
 90
       50
176
     1
 90
       50
176
     1
 90
       50
176
     1
290
     0
176
     1
 90
       50
176
     1
 62
   256
176
     0
 40
1.0
176
     0
 90
        2
176
     1
  1
strokes_ogs.tif
176
     1
290
     0
176
     1
 40
1.0
176
     1
 40
1.0
176
     1
  0
VISUALSTYLE
  5
3A
102
{ACAD_REACTORS
330
2A
102
}
330
2A
100
AcDbVisualStyle
  2
ColorChange
 70
    16
177
     3
291
     1
 70
    58
 90
        2
176
     1
 90
        2
176
     1
 90
        3
176
     1
 90
        0
176
     1
 40
0.6
176
     1
 40
30.0
176
     1
 62
     8
420
  8421504
176
     1
 90
        1
176
     1
 90
        4
176
     1
 62
     7
176
     1
 62
   257
176
     1
 90
        1
176
     1
 90
        1
176
     1
 40
1.0
176
     1
 90
        8
176
     1
 62
     8
420
  8421504
176
     1
 40
1.0
176
     1
 90
        1
176
     1
 90
        6
176
     1
 90
        2
176
     1
 62
     7
176
     1
 90
        5
176
     1
 90
        0
176
     1
 90
        0
176
     1
290
     0
176
     1
 90
        1
176
     1
 40
0.0
176
     1
 90
        0
176
     1
290
     0
176
     1
290
     1
176
     1
290
     1
176
     1
290
     0
176
     1
290
     0
176
     1
290
     0
176
     1
290
     0
176
     1
290
     0
176
     1
290
     0
176
     1
 90
       50
176
     1
 40
0.0
176
     1
 40
1.0
176
     1
 90
        0
176
     1
 62
    18
420
        0
176
     1
 90
       50
176
     1
 90
        3
176
     1
 62
     5
420
      255
176
     1
290
     0
176
     1
 90
       50
176
     1
 90
       50
176
     1
 90
       50
176
     1
290
     0
176
     1
 90
       50
176
     1
 62
   256
176
     0
 40
1.0
176
     0
 90
        2
176
     1
  1
strokes_ogs.tif
176
     1
290
     0
176
     1
 40
1.0
176
     1
 40
1.0
176
     1
  0
VISUALSTYLE
  5
34
102
{ACAD_REACTORS
330
2A
102
}
330
2A
100
AcDbVisualStyle
  2
Conceptual
 70
     9
177
     3
291
     0
 70
    58
 90
        3
176
     1
 90
        2
176
     1
 90
        0
176
     1
 90
        0
176
     1
 40
0.6
176
     1
 40
30.0
176
     1
 62
     7
420
 16777215
176
     1
 90
        2
176
     1
 90
        2
176
     1
 62
     7
176
     1
 62
   257
176
     1
 90
        1
176
     1
 90
        1
176
     1
 40
179.0
176
     1
 90
        8
176
     1
 62
     7
176
     1
 40
1.0
176
     1
 90
        1
176
     1
 90
        6
176
     1
 90
        2
176
     1
 62
     7
176
     1
 90
        3
176
     1
 90
        0
176
     1
 90
        0
176
     1
290
     0
176
     1
 90
        1
176
     1
 40
0.0
176
     1
 90
        0
176
     1
290
     0
176
     1
290
     1
176
     1
290
     1
176
     1
290
     0
176
     1
290
     0
176
     1
290
     0
176
     1
290
     0
176
     1
290
     0
176
     1
290
     0
176
     1
 90
       50
176
     1
 40
0.0
176
     1
 40
1.0
176
     1
 90
        0
176
     1
 62
    18
420
        0
176
     1
 90
       50
176
     1
 90
        3
176
     1
 62
     5
420
      255
176
     1
290
     0
176
     1
 90
       50
176
     1
 90
       50
176
     1
 90
       50
176
     1
290
     0
176
     1
 90
       50
176
     1
 62
   256
176
     0
 40
1.0
176
     0
 90
        2
176
     1
  1
strokes_ogs.tif
176
     1
290
     0
176
     1
 40
1.0
176
     1
 40
1.0
176
     1
  0
VISUALSTYLE
  5
35
102
{ACAD_REACTORS
330
2A
102
}
330
2A
100
AcDbVisualStyle
  2
Dim
 70
    11
177
     3
291
     1
 70
    58
 90
        2
176
     1
 90
        2
176
     1
 90
        0
176
     1
 90
        0
176
     1
 40
0.6
176
     1
 40
30.0
176
     1
 62
     7
420
 16777215
176
     1
 90
        1
176
     1
 90
        4
176
     1
 62
     7
176
     1
 62
   257
176
     1
 90
        1
176
     1
 90
        1
176
     1
 40
1.0
176
     1
 90
        8
176
     1
 62
     7
176
     1
 40
1.0
176
     1
 90
        1
176
     1
 90
        6
176
     1
 90
        2
176
     1
 62
     7
176
     1
 90
        5
176
     1
 90
        0
176
     1
 90
        0
176
     1
290
     0
176
     1
 90
        1
176
     1
 40
-50.0
176
     1
 90
        0
176
     1
290
     0
176
     1
290
     1
176
     1
290
     1
176
     1
290
     0
176
     1
290
     0
176
     1
290
     0
176
     1
290
     0
176
     1
290
     0
176
     1
290
     0
176
     1
 90
       50
176
     1
 40
0.0
176
     1
 40
1.0
176
     1
 90
        0
176
     1
 62
    18
420
        0
176
     1
 90
       50
176
     1
 90
        3
176
     1
 62
     5
420
      255
176
     1
290
     0
176
     1
 90
       50
176
     1
 90
       50
176
     1
 90
       50
176
     1
290
     0
176
     1
 90
       50
176
     1
 62
   256
176
     0
 40
1.0
176
     0
 90
        2
176
     1
  1
strokes_ogs.tif
176
     1
290
     0
176
     1
 40
1.0
176
     1
 40
1.0
176
     1
  0
VISUALSTYLE
  5
3D
102
{ACAD_REACTORS
330
2A
102
}
330
2A
100
AcDbVisualStyle
  2
EdgeColorOff
 70
    22
177
     3
291
     1
 70
    58
 90
        2
176
     0
 90
        2
176
     0
 90
        0
176
     0
 90
        0
176
     0
 40
0.6
176
     0
 40
30.0
176
     0
 62
     7
420
 16777215
176
     0
 90
        1
176
     0
 90
        4
176
     0
 62
     7
176
     0
 62
   257
176
     0
 90
        1
176
     0
 90
        1
176
     0
 40
1.0
176
     0
 90
        8
176
     2
 62
     7
176
     0
 40
1.0
176
     0
 90
        1
176
     0
 90
        6
176
     0
 90
        2
176
     0
 62
     7
176
     0
 90
        5
176
     0
 90
        0
176
     0
 90
        0
176
     0
290
     0
176
     0
 90
        1
176
     0
 40
0.0
176
     0
 90
        0
176
     0
290
     0
176
     0
290
     1
176
     0
290
     1
176
     0
290
     0
176
     0
290
     0
176
     0
290
     0
176
     0
290
     0
176
     0
290
     0
176
     0
290
     0
176
     0
 90
       50
176
     0
 40
0.0
176
     0
 40
1.0
176
     0
 90
        0
176
     0
 62
    18
420
        0
176
     0
 90
       50
176
     0
 90
        3
176
     0
 62
     5
420
      255
176
     0
290
     0
176
     0
 90
       50
176
     0
 90
       50
176
     0
 90
       50
176
     0
290
     0
176
     0
 90
       50
176
     0
 62
   256
176
     0
 40
1.0
176
     0
 90
        2
176
     0
  1
strokes_ogs.tif
176
     0
290
     0
176
     0
 40
1.0
176
     0
 40
1.0
176
     0
  0
VISUALSTYLE
  5
39
102
{ACAD_REACTORS
330
2A
102
}
330
2A
100
AcDbVisualStyle
  2
Facepattern
 70
    15
177
     3
291
     1
 70
    58
 90
        2
176
     1
 90
        2
176
     1
 90
        0
176
     1
 90
        0
176
     1
 40
0.6
176
     1
 40
30.0
176
     1
 62
     7
420
 16777215
176
     1
 90
        1
176
     1
 90
        4
176
     1
 62
     7
176
     1
 62
   257
176
     1
 90
        1
176
     1
 90
        1
176
     1
 40
1.0
176
     1
 90
        8
176
     1
 62
     7
176
     1
 40
1.0
176
     1
 90
        1
176
     1
 90
        6
176
     1
 90
        2
176
     1
 62
     7
176
     1
 90
        5
176
     1
 90
        0
176
     1
 90
        0
176
     1
290
     0
176
     1
 90
        1
176
     1
 40
0.0
176
     1
 90
        0
176
     1
290
     0
176
     1
290
     1
176
     1
290
     1
176
     1
290
     0
176
     1
290
     0
176
     1
290
     0
176
     1
290
     0
176
     1
290
     0
176
     1
290
     0
176
     1
 90
       50
176
     1
 40
0.0
176
     1
 40
1.0
176
     1
 90
        0
176
     1
 62
    18
420
        0
176
     1
 90
       50
176
     1
 90
        3
176
     1
 62
     5
420
      255
176
     1
290
     0
176
     1
 90
       50
176
     1
 90
       50
176
     1
 90
       50
176
     1
290
     0
176
     1
 90
       50
176
     1
 62
   256
176
     0
 40
1.0
176
     0
 90
        2
176
     1
  1
strokes_ogs.tif
176
     1
290
     0
176
     1
 40
1.0
176
     1
 40
1.0
176
     1
  0
VISUALSTYLE
  5
2B
102
{ACAD_REACTORS
330
2A
102
}
330
2A
100
AcDbVisualStyle
  2
Flat
 70
     0
177
     3
291
     1
 70
    58
 90
        2
176
     1
 90
        1
176
     1
 90
        1
176
     1
 90
        2
176
     1
 40
0.6
176
     1
 40
30.0
176
     1
 62
     7
420
 16777215
176
     1
 90
        0
176
     1
 90
        0
176
     1
 62
     7
176
     1
 62
   257
176
     1
 90
        1
176
     1
 90
        1
176
     1
 40
1.0
176
     1
 90
        8
176
     1
 62
     7
176
     1
 40
1.0
176
     1
 90
        1
176
     1
 90
        6
176
     1
 90
        2
176
     1
 62
     7
176
     1
 90
        5
176
     1
 90
        0
176
     1
 90
        0
176
     1
290
     0
176
     1
 90
       13
176
     1
 40
0.0
176
     1
 90
        0
176
     1
290
     0
176
     1
290
     1
176
     1
290
     1
176
     1
290
     0
176
     1
290
     0
176
     1
290
     0
176
     1
290
     0
176
     1
290
     0
176
     1
290
     0
176
     1
 90
       50
176
     1
 40
0.0
176
     1
 40
1.0
176
     1
 90
        0
176
     1
 62
    18
420
        0
176
     1
 90
       50
176
     1
 90
        3
176
     1
 62
     5
420
      255
176
     1
290
     0
176
     1
 90
       50
176
     1
 90
       50
176
     1
 90
       50
176
     1
290
     0
176
     1
 90
       50
176
     1
 62
   256
176
     0
 40
1.0
176
     0
 90
        2
176
     1
  1
strokes_ogs.tif
176
     1
290
     0
176
     1
 40
1.0
176
     1
 40
1.0
176
     1
  0
VISUALSTYLE
  5
2C
102
{ACAD_REACTORS
330
2A
102
}
330
2A
100
AcDbVisualStyle
  2
FlatWithEdges
 70
     1
177
     3
291
     1
 70
    58
 90
        2
176
     1
 90
        1
176
     1
 90
        1
176
     1
 90
        2
176
     1
 40
0.6
176
     1
 40
30.0
176
     1
 62
     7
420
 16777215
176
     1
 90
        1
176
     1
 90
        0
176
     1
 62
     7
176
     1
 62
   257
176
     1
 90
        1
176
     1
 90
        1
176
     1
 40
1.0
176
     1
 90
        0
176
     1
 62
   257
176
     1
 40
1.0
176
     1
 90
        1
176
     1
 90
        6
176
     1
 90
        2
176
     1
 62
     7
176
     1
 90
        5
176
     1
 90
        0
176
     1
 90
        0
176
     1
290
     0
176
     1
 90
       13
176
     1
 40
0.0
176
     1
 90
        0
176
     1
290
     0
176
     1
290
     1
176
     1
290
     1
176
     1
290
     0
176
     1
290
     0
176
     1
290
     0
176
     1
290
     0
176
     1
290
     0
176
     1
290
     0
176
     1
 90
       50
176
     1
 40
0.0
176
     1
 40
1.0
176
     1
 90
        0
176
     1
 62
    18
420
        0
176
     1
 90
       50
176
     1
 90
        3
176
     1
 62
     5
420
      255
176
     1
290
     0
176
     1
 90
       50
176
     1
 90
       50
176
     1
 90
       50
176
     1
290
     0
176
     1
 90
       50
176
     1
 62
   256
176
     0
 40
1.0
176
     0
 90
        2
176
     1
  1
strokes_ogs.tif
176
     1
290
     0
176
     1
 40
1.0
176
     1
 40
1.0
176
     1
  0
VISUALSTYLE
  5
2D
102
{ACAD_REACTORS
330
2A
102
}
330
2A
100
AcDbVisualStyle
  2
Gouraud
 70
     2
177
     3
291
     1
 70
    58
 90
        2
176
     1
 90
        2
176
     1
 90
        1
176
     1
 90
        2
176
     1
 40
0.6
176
     1
 40
30.0
176
     1
 62
     7
420
 16777215
176
     1
 90
        0
176
     1
 90
        0
176
     1
 62
     7
176
     1
 62
   257
176
     1
 90
        1
176
     1
 90
        1
176
     1
 40
1.0
176
     1
 90
        0
176
     1
 62
     7
176
     1
 40
1.0
176
     1
 90
        1
176
     1
 90
        6
176
     1
 90
        2
176
     1
 62
     7
176
     1
 90
        5
176
     1
 90
        0
176
     1
 90
        0
176
     1
290
     0
176
     1
 90
       13
176
     1
 40
0.0
176
     1
 90
        0
176
     1
290
     0
176
     1
290
     1
176
     1
290
     1
176
     1
290
     0
176
     1
290
     0
176
     1
290
     0
176
     1
290
     0
176
     1
290
     0
176
     1
290
     0
176
     1
 90
       50
176
     1
 40
0.0
176
     1
 40
1.0
176
     1
 90
        0
176
     1
 62
    18
420
        0
176
     1
 90
       50
176
     1
 90
        3
176
     1
 62
     5
420
      255
176
     1
290
     0
176
     1
 90
       50
176
     1
 90
       50
176
     1
 90
       50
176
     1
290
     0
176
     1
 90
       50
176
     1
 62
   256
176
     0
 40
1.0
176
     0
 90
        2
176
     1
  1
strokes_ogs.tif
176
     1
290
     0
176
     1
 40
1.0
176
     1
 40
1.0
176
     1
  0
VISUALSTYLE
  5
2E
102
{ACAD_REACTORS
330
2A
102
}
330
2A
100
AcDbVisualStyle
  2
GouraudWithEdges
 70
     3
177
     3
291
     1
 70
    58
 90
        2
176
     1
 90
        2
176
     1
 90
        1
176
     1
 90
        2
176
     1
 40
0.6
176
     1
 40
30.0
176
     1
 62
     7
420
 16777215
176
     1
 90
        1
176
     1
 90
        0
176
     1
 62
     7
176
     1
 62
   257
176
     1
 90
        1
176
     1
 90
        1
176
     1
 40
1.0
176
     1
 90
        0
176
     1
 62
   257
176
     1
 40
1.0
176
     1
 90
        1
176
     1
 90
        6
176
     1
 90
        2
176
     1
 62
     7
176
     1
 90
        5
176
     1
 90
        0
176
     1
 90
        0
176
     1
290
     0
176
     1
 90
       13
176
     1
 40
0.0
176
     1
 90
        0
176
     1
290
     0
176
     1
290
     1
176
     1
290
     1
176
     1
290
     0
176
     1
290
     0
176
     1
290
     0
176
     1
290
     0
176
     1
290
     0
176
     1
290
     0
176
     1
 90
       50
176
     1
 40
0.0
176
     1
 40
1.0
176
     1
 90
        0
176
     1
 62
    18
420
        0
176
     1
 90
       50
176
     1
 90
        3
176
     1
 62
     5
420
      255
176
     1
290
     0
176
     1
 90
       50
176
     1
 90
       50
176
     1
 90
       50
176
     1
290
     0
176
     1
 90
       50
176
     1
 62
   256
176
     0
 40
1.0
176
     0
 90
        2
176
     1
  1
strokes_ogs.tif
176
     1
290
     0
176
     1
 40
1.0
176
     1
 40
1.0
176
     1
  0
VISUALSTYLE
  5
31
102
{ACAD_REACTORS
330
2A
102
}
330
2A
100
AcDbVisualStyle
  2
Hidden
 70
     6
177
     3
291
     0
 70
    58
 90
        1
176
     1
 90
        2
176
     1
 90
        2
176
     1
 90
        0
176
     1
 40
0.6
176
     1
 40
30.0
176
     1
 62
     7
420
 16777215
176
     1
 90
        2
176
     1
 90
        2
176
     1
 62
     7
176
     1
 62
   257
176
     1
 90
        2
176
     1
 90
        1
176
     1
 40
40.0
176
     1
 90
        0
176
     1
 62
   257
176
     1
 40
1.0
176
     1
 90
        1
176
     1
 90
        6
176
     1
 90
        2
176
     1
 62
     7
176
     1
 90
        3
176
     1
 90
        0
176
     1
 90
        0
176
     1
290
     0
176
     1
 90
        1
176
     1
 40
0.0
176
     1
 90
        0
176
     1
290
     0
176
     1
290
     1
176
     1
290
     1
176
     1
290
     0
176
     1
290
     0
176
     1
290
     0
176
     1
290
     0
176
     1
290
     0
176
     1
290
     0
176
     1
 90
       50
176
     1
 40
0.0
176
     1
 40
1.0
176
     1
 90
        0
176
     1
 62
    18
420
        0
176
     1
 90
       50
176
     1
 90
        3
176
     1
 62
     5
420
      255
176
     1
290
     0
176
     1
 90
       50
176
     1
 90
       50
176
     1
 90
       50
176
     1
290
     0
176
     1
 90
       50
176
     1
 62
   256
176
     0
 40
1.0
176
     0
 90
        2
176
     1
  1
strokes_ogs.tif
176
     1
290
     0
176
     1
 40
1.0
176
     1
 40
1.0
176
     1
  0
VISUALSTYLE
  5
3B
102
{ACAD_REACTORS
330
2A
102
}
330
2A
100
AcDbVisualStyle
  2
JitterOff
 70
    20
177
     3
291
     1
 70
    58
 90
        2
176
     0
 90
        2
176
     0
 90
        0
176
     0
 90
        0
176
     0
 40
0.6
176
     0
 40
30.0
176
     0
 62
     7
420
 16777215
176
     0
 90
        1
176
     0
 90
        4
176
     0
 62
     7
176
     0
 62
   257
176
     0
 90
        1
176
     0
 90
        1
176
     0
 40
1.0
176
     0
 90
       10
176
     2
 62
     7
176
     0
 40
1.0
176
     0
 90
        1
176
     0
 90
        6
176
     0
 90
        2
176
     0
 62
     7
176
     0
 90
        5
176
     0
 90
        0
176
     0
 90
        0
176
     0
290
     0
176
     0
 90
        1
176
     0
 40
0.0
176
     0
 90
        0
176
     0
290
     0
176
     0
290
     1
176
     0
290
     1
176
     0
290
     0
176
     0
290
     0
176
     0
290
     0
176
     0
290
     0
176
     0
290
     0
176
     0
290
     0
176
     0
 90
       50
176
     0
 40
0.0
176
     0
 40
1.0
176
     0
 90
        0
176
     0
 62
    18
420
        0
176
     0
 90
       50
176
     0
 90
        3
176
     0
 62
     5
420
      255
176
     0
290
     0
176
     0
 90
       50
176
     0
 90
       50
176
     0
 90
       50
176
     0
290
     0
176
     0
 90
       50
176
     0
 62
   256
176
     0
 40
1.0
176
     0
 90
        2
176
     0
  1
strokes_ogs.tif
176
     0
290
     0
176
     0
 40
1.0
176
     0
 40
1.0
176
     0
  0
VISUALSTYLE
  5
38
102
{ACAD_REACTORS
330
2A
102
}
330
2A
100
AcDbVisualStyle
  2
Linepattern
 70
    14
177
     3
291
     1
 70
    58
 90
        2
176
     1
 90
        2
176
     1
 90
        0
176
     1
 90
        0
176
     1
 40
0.6
176
     1
 40
30.0
176
     1
 62
     7
420
 16777215
176
     1
 90
        1
176
     1
 90
        4
176
     1
 62
     7
176
     1
 62
   257
176
     1
 90
        7
176
     1
 90
        7
176
     1
 40
1.0
176
     1
 90
        8
176
     1
 62
     7
176
     1
 40
1.0
176
     1
 90
        1
176
     1
 90
        6
176
     1
 90
        2
176
     1
 62
     7
176
     1
 90
        5
176
     1
 90
        0
176
     1
 90
        0
176
     1
290
     0
176
     1
 90
        1
176
     1
 40
0.0
176
     1
 90
        0
176
     1
290
     0
176
     1
290
     1
176
     1
290
     1
176
     1
290
     0
176
     1
290
     0
176
     1
290
     0
176
     1
290
     0
176
     1
290
     0
176
     1
290
     0
176
     1
 90
       50
176
     1
 40
0.0
176
     1
 40
1.0
176
     1
 90
        0
176
     1
 62
    18
420
        0
176
     1
 90
       50
176
     1
 90
        3
176
     1
 62
     5
420
      255
176
     1
290
     0
176
     1
 90
       50
176
     1
 90
       50
176
     1
 90
       50
176
     1
290
     0
176
     1
 90
       50
176
     1
 62
   256
176
     0
 40
1.0
176
     0
 90
        2
176
     1
  1
strokes_ogs.tif
176
     1
290
     0
176
     1
 40
1.0
176
     1
 40
1.0
176
     1
  0
VISUALSTYLE
  5
3C
102
{ACAD_REACTORS
330
2A
102
}
330
2A
100
AcDbVisualStyle
  2
OverhangOff
 70
    21
177
     3
291
     1
 70
    58
 90
        2
176
     0
 90
        2
176
     0
 90
        0
176
     0
 90
        0
176
     0
 40
0.6
176
     0
 40
30.0
176
     0
 62
     7
420
 16777215
176
     0
 90
        1
176
     0
 90
        4
176
     0
 62
     7
176
     0
 62
   257
176
     0
 90
        1
176
     0
 90
        1
176
     0
 40
1.0
176
     0
 90
        9
176
     2
 62
     7
176
     0
 40
1.0
176
     0
 90
        1
176
     0
 90
        6
176
     0
 90
        2
176
     0
 62
     7
176
     0
 90
        5
176
     0
 90
        0
176
     0
 90
        0
176
     0
290
     0
176
     0
 90
        1
176
     0
 40
0.0
176
     0
 90
        0
176
     0
290
     0
176
     0
290
     1
176
     0
290
     1
176
     0
290
     0
176
     0
290
     0
176
     0
290
     0
176
     0
290
     0
176
     0
290
     0
176
     0
290
     0
176
     0
 90
       50
176
     0
 40
0.0
176
     0
 40
1.0
176
     0
 90
        0
176
     0
 62
    18
420
        0
176
     0
 90
       50
176
     0
 90
        3
176
     0
 62
     5
420
      255
176
     0
290
     0
176
     0
 90
       50
176
     0
 90
       50
176
     0
 90
       50
176
     0
290
     0
176
     0
 90
       50
176
     0
 62
   256
176
     0
 40
1.0
176
     0
 90
        2
176
     0
  1
strokes_ogs.tif
176
     0
290
     0
176
     0
 40
1.0
176
     0
 40
1.0
176
     0
  0
VISUALSTYLE
  5
33
102
{ACAD_REACTORS
330
2A
102
}
330
2A
100
AcDbVisualStyle
  2
Realistic
 70
     8
177
     3
291
     0
 70
    58
 90
        2
176
     1
 90
        3
176
     1
 90
        0
176
     1
 90
        2
176
     1
 40
0.6
176
     1
 40
30.0
176
     1
 62
     7
420
 16777215
176
     1
 90
        0
176
     1
 90
        0
176
     1
 62
     7
176
     1
 62
   257
176
     1
 90
        1
176
     1
 90
        1
176
     1
 40
1.0
176
     1
 90
        8
176
     1
 62
   257
176
     1
 40
1.0
176
     1
 90
        1
176
     1
 90
        6
176
     1
 90
        2
176
     1
 62
     7
176
     1
 90
        3
176
     1
 90
        0
176
     1
 90
        0
176
     1
290
     0
176
     1
 90
       13
176
     1
 40
0.0
176
     1
 90
        0
176
     1
290
     0
176
     1
290
     1
176
     1
290
     1
176
     1
290
     0
176
     1
290
     0
176
     1
290
     0
176
     1
290
     0
176
     1
290
     0
176
     1
290
     0
176
     1
 90
       50
176
     1
 40
0.0
176
     1
 40
1.0
176
     1
 90
        0
176
     1
 62
    18
420
        0
176
     1
 90
       50
176
     1
 90
        3
176
     1
 62
     5
420
      255
176
     1
290
     0
176
     1
 90
       50
176
     1
 90
       50
176
     1
 90
       50
176
     1
290
     0
176
     1
 90
       50
176
     1
 62
   256
176
     0
 40
1.0
176
     0
 90
        2
176
     1
  1
strokes_ogs.tif
176
     1
290
     0
176
     1
 40
1.0
176
     1
 40
1.0
176
     1
  0
VISUALSTYLE
  5
42
102
{ACAD_REACTORS
330
2A
102
}
330
2A
100
AcDbVisualStyle
  2
Shaded
 70
    27
177
     3
291
     0
 70
    58
 90
        2
176
     1
 90
        2
176
     1
 90
        1
176
     1
 90
        2
176
     1
 40
0.6
176
     1
 40
30.0
176
     1
 62
     7
420
 16777215
176
     1
 90
        0
176
     1
 90
        4
176
     1
 62
     7
176
     1
 62
   257
176
     1
 90
        1
176
     1
 90
        1
176
     1
 40
1.0
176
     1
 90
        8
176
     1
 62
   257
176
     1
 40
1.0
176
     1
 90
        1
176
     1
 90
        6
176
     1
 90
        2
176
     1
 62
     8
420
  7895160
176
     1
 90
        3
176
     1
 90
        0
176
     1
 90
        0
176
     1
290
     0
176
     1
 90
        5
176
     1
 40
0.0
176
     1
 90
        0
176
     1
290
     0
176
     1
290
     1
176
     1
290
     1
176
     1
290
     0
176
     1
290
     0
176
     1
290
     0
176
     1
290
     0
176
     1
290
     0
176
     1
290
     0
176
     1
 90
       50
176
     1
 40
0.0
176
     1
 40
1.0
176
     1
 90
        0
176
     1
 62
    18
420
        0
176
     1
 90
       50
176
     1
 90
        3
176
     1
 62
     5
420
      255
176
     1
290
     0
176
     1
 90
       50
176
     1
 90
       50
176
     1
 90
       50
176
     1
290
     0
176
     1
 90
       50
176
     1
 62
   256
176
     0
 40
1.0
176
     0
 90
        2
176
     1
  1
strokes_ogs.tif
176
     1
290
     0
176
     1
 40
1.0
176
     1
 40
1.0
176
     1
  0
VISUALSTYLE
  5
41
102
{ACAD_REACTORS
330
2A
102
}
330
2A
100
AcDbVisualStyle
  2
Shaded with edges
 70
    26
177
     3
291
     0
 70
    58
 90
        2
176
     1
 90
        2
176
     1
 90
        1
176
     1
 90
        2
176
     1
 40
0.6
176
     1
 40
30.0
176
     1
 62
     7
420
 16777215
176
     1
 90
        1
176
     1
 90
        2
176
     1
 62
     7
176
     1
 62
   257
176
     1
 90
        2
176
     1
 90
        1
176
     1
 40
1.0
176
     1
 90
        8
176
     1
 62
   257
176
     1
 40
1.0
176
     1
 90
        1
176
     1
 90
        6
176
     1
 90
        2
176
     1
 62
     7
176
     1
 90
        3
176
     1
 90
        0
176
     1
 90
        0
176
     1
290
     0
176
     1
 90
        5
176
     1
 40
0.0
176
     1
 90
        0
176
     1
290
     0
176
     1
290
     1
176
     1
290
     1
176
     1
290
     0
176
     1
290
     0
176
     1
290
     0
176
     1
290
     0
176
     1
290
     0
176
     1
290
     0
176
     1
 90
       50
176
     1
 40
0.0
176
     1
 40
1.0
176
     1
 90
        0
176
     1
 62
    18
420
        0
176
     1
 90
       50
176
     1
 90
        3
176
     1
 62
     5
420
      255
176
     1
290
     0
176
     1
 90
       50
176
     1
 90
       50
176
     1
 90
       50
176
     1
290
     0
176
     1
 90
       50
176
     1
 62
   256
176
     0
 40
1.0
176
     0
 90
        2
176
     1
  1
strokes_ogs.tif
176
     1
290
     0
176
     1
 40
1.0
176
     1
 40
1.0
176
     1
  0
VISUALSTYLE
  5
3E
102
{ACAD_REACTORS
330
2A
102
}
330
2A
100
AcDbVisualStyle
  2
Shades of Gray
 70
    23
177
     3
291
     0
 70
    58
 90
        2
176
     1
 90
        2
176
     1
 90
        3
176
     1
 90
        0
176
     1
 40
0.6
176
     1
 40
30.0
176
     1
 62
     7
420
 16777215
176
     1
 90
        2
176
     1
 90
        2
176
     1
 62
     7
176
     1
 62
     7
176
     1
 90
        1
176
     1
 90
        1
176
     1
 40
40.0
176
     1
 90
        8
176
     1
 62
     7
176
     1
 40
1.0
176
     1
 90
        1
176
     1
 90
        6
176
     1
 90
        2
176
     1
 62
     7
176
     1
 90
        3
176
     1
 90
        0
176
     1
 90
        0
176
     1
290
     0
176
     1
 90
        1
176
     1
 40
0.0
176
     1
 90
        0
176
     1
290
     0
176
     1
290
     1
176
     1
290
     1
176
     1
290
     0
176
     1
290
     0
176
     1
290
     0
176
     1
290
     0
176
     1
290
     0
176
     1
290
     0
176
     1
 90
       50
176
     1
 40
0.0
176
     1
 40
1.0
176
     1
 90
        0
176
     1
 62
    18
420
        0
176
     1
 90
       50
176
     1
 90
        3
176
     1
 62
     5
420
      255
176
     1
290
     0
176
     1
 90
       50
176
     1
 90
       50
176
     1
 90
       50
176
     1
290
     0
176
     1
 90
       50
176
     1
 62
   256
176
     0
 40
1.0
176
     0
 90
        2
176
     1
  1
strokes_ogs.tif
176
     1
290
     0
176
     1
 40
1.0
176
     1
 40
1.0
176
     1
  0
VISUALSTYLE
  5
3F
102
{ACAD_REACTORS
330
2A
102
}
330
2A
100
AcDbVisualStyle
  2
Sketchy
 70
    24
177
     3
291
     0
 70
    58
 90
        1
176
     1
 90
        2
176
     1
 90
        2
176
     1
 90
        0
176
     1
 40
0.6
176
     1
 40
30.0
176
     1
 62
     7
420
 16777215
176
     1
 90
        2
176
     1
 90
        2
176
     1
 62
     7
176
     1
 62
     7
176
     1
 90
        1
176
     1
 90
        1
176
     1
 40
40.0
176
     1
 90
       11
176
     1
 62
     7
176
     1
 40
1.0
176
     1
 90
        1
176
     1
 90
        6
176
     1
 90
        2
176
     1
 62
     7
176
     1
 90
        6
176
     1
 90
        0
176
     1
 90
        0
176
     1
290
     0
176
     1
 90
        1
176
     1
 40
0.0
176
     1
 90
        0
176
     1
290
     0
176
     1
290
     1
176
     1
290
     1
176
     1
290
     0
176
     1
290
     0
176
     1
290
     0
176
     1
290
     0
176
     1
290
     0
176
     1
290
     0
176
     1
 90
       50
176
     1
 40
0.0
176
     1
 40
1.0
176
     1
 90
        0
176
     1
 62
    18
420
        0
176
     1
 90
       50
176
     1
 90
        3
176
     1
 62
     5
420
      255
176
     1
290
     0
176
     1
 90
       50
176
     1
 90
       50
176
     1
 90
       50
176
     1
290
     0
176
     1
 90
       50
176
     1
 62
   256
176
     0
 40
1.0
176
     0
 90
        2
176
     1
  1
strokes_ogs.tif
176
     1
290
     0
176
     1
 40
1.0
176
     1
 40
1.0
176
     1
  0
VISUALSTYLE
  5
37
102
{ACAD_REACTORS
330
2A
102
}
330
2A
100
AcDbVisualStyle
  2
Thicken
 70
    13
177
     3
291
     1
 70
    58
 90
        2
176
     1
 90
        2
176
     1
 90
        0
176
     1
 90
        0
176
     1
 40
0.6
176
     1
 40
30.0
176
     1
 62
     7
420
 16777215
176
     1
 90
        1
176
     1
 90
        4
176
     1
 62
     7
176
     1
 62
   257
176
     1
 90
        1
176
     1
 90
        1
176
     1
 40
1.0
176
     1
 90
       12
176
     1
 62
     7
176
     1
 40
1.0
176
     1
 90
        1
176
     1
 90
        6
176
     1
 90
        2
176
     1
 62
     7
176
     1
 90
        5
176
     1
 90
        0
176
     1
 90
        0
176
     1
290
     0
176
     1
 90
        1
176
     1
 40
0.0
176
     1
 90
        0
176
     1
290
     0
176
     1
290
     1
176
     1
290
     1
176
     1
290
     0
176
     1
290
     0
176
     1
290
     0
176
     1
290
     0
176
     1
290
     0
176
     1
290
     0
176
     1
 90
       50
176
     1
 40
0.0
176
     1
 40
1.0
176
     1
 90
        0
176
     1
 62
    18
420
        0
176
     1
 90
       50
176
     1
 90
        3
176
     1
 62
     5
420
      255
176
     1
290
     0
176
     1
 90
       50
176
     1
 90
       50
176
     1
 90
       50
176
     1
290
     0
176
     1
 90
       50
176
     1
 62
   256
176
     0
 40
1.0
176
     0
 90
        2
176
     1
  1
strokes_ogs.tif
176
     1
290
     0
176
     1
 40
1.0
176
     1
 40
1.0
176
     1
  0
VISUALSTYLE
  5
30
102
{ACAD_REACTORS
330
2A
102
}
330
2A
100
AcDbVisualStyle
  2
Wireframe
 70
     5
177
     3
291
     0
 70
    58
 90
        0
176
     1
 90
        2
176
     1
 90
        0
176
     1
 90
        0
176
     1
 40
0.6
176
     1
 40
30.0
176
     1
 62
     7
420
 16777215
176
     1
 90
        1
176
     1
 90
        4
176
     1
 62
     7
176
     1
 62
   257
176
     1
 90
        1
176
     1
 90
        1
176
     1
 40
1.0
176
     1
 90
        0
176
     1
 62
   257
176
     1
 40
1.0
176
     1
 90
        1
176
     1
 90
        6
176
     1
 90
        2
176
     1
 62
     7
176
     1
 90
        3
176
     1
 90
        0
176
     1
 90
        0
176
     1
290
     0
176
     1
 90
        1
176
     1
 40
0.0
176
     1
 90
        0
176
     1
290
     0
176
     1
290
     1
176
     1
290
     1
176
     1
290
     0
176
     1
290
     0
176
     1
290
     0
176
     1
290
     0
176
     1
290
     0
176
     1
290
     0
176
     1
 90
       50
176
     1
 40
0.0
176
     1
 40
1.0
176
     1
 90
        0
176
     1
 62
    18
420
        0
176
     1
 90
       50
176
     1
 90
        3
176
     1
 62
     5
420
      255
176
     1
290
     0
176
     1
 90
       50
176
     1
 90
       50
176
     1
 90
       50
176
     1
290
     0
176
     1
 90
       50
176
     1
 62
   256
176
     0
 40
1.0
176
     0
 90
        2
176
     1
  1
strokes_ogs.tif
176
     1
290
     0
176
     1
 40
1.0
176
     1
 40
1.0
176
     1
  0
VISUALSTYLE
  5
40
102
{ACAD_REACTORS
330
2A
102
}
330
2A
100
AcDbVisualStyle
  2
X-Ray
 70
    25
177
     3
291
     0
 70
    58
 90
        2
176
     1
 90
        2
176
     1
 90
        1
176
     1
 90
        1
176
     1
 40
0.5
176
     1
 40
30.0
176
     1
 62
     7
420
 16777215
176
     1
 90
        1
176
     1
 90
        0
176
     1
 62
     7
176
     1
 62
   257
176
     1
 90
        1
176
     1
 90
        1
176
     1
 40
1.0
176
     1
 90
        8
176
     1
 62
     7
176
     1
 40
1.0
176
     1
 90
        1
176
     1
 90
        6
176
     1
 90
        2
176
     1
 62
     7
176
     1
 90
        3
176
     1
 90
        0
176
     1
 90
        0
176
     1
290
     0
176
     1
 90
       13
176
     1
 40
0.0
176
     1
 90
        0
176
     1
290
     0
176
     1
290
     1
176
     1
290
     1
176
     1
290
     0
176
     1
290
     0
176
     1
290
     0
176
     1
290
     0
176
     1
290
     0
176
     1
290
     0
176
     1
 90
       50
176
     1
 40
0.0
176
     1
 40
1.0
176
     1
 90
        0
176
     1
 62
    18
420
        0
176
     1
 90
       50
176
     1
 90
        3
176
     1
 62
     5
420
      255
176
     1
290
     0
176
     1
 90
       50
176
     1
 90
       50
176
     1
 90
       50
176
     1
290
     0
176
     1
 90
       50
176
     1
 62
   256
176
     0
 40
1.0
176
     0
 90
        2
176
     1
  1
strokes_ogs.tif
176
     1
290
     0
176
     1
 40
1.0
176
     1
 40
1.0
176
     1
  0
DICTIONARYVAR
  5
3D3
102
{ACAD_REACTORS
330
3D2
102
}
330
3D2
100
DictionaryVariables
280
     0
  1
1:1
  0
DICTIONARYVAR
  5
3D8
102
{ACAD_REACTORS
330
3D2
102
}
330
3D2
100
DictionaryVariables
280
     0
  1
3.500000
  0
DICTIONARYVAR
  5
3D9
102
{ACAD_REACTORS
330
3D2
102
}
330
3D2
100
DictionaryVariables
280
     0
  1
acadiso.lin
  0
DICTIONARYVAR
  5
3D5
102
{ACAD_REACTORS
330
3D2
102
}
330
3D2
100
DictionaryVariables
280
     0
  1
STANDARD
  0
DICTIONARYVAR
  5
3D4
102
{ACAD_REACTORS
330
3D2
102
}
330
3D2
100
DictionaryVariables
280
     0
  1
STANDARD
  0
DICTIONARYVAR
  5
3EA
102
{ACAD_REACTORS
330
3D2
102
}
330
3D2
100
DictionaryVariables
280
     0
  1
Metric50
  0
DICTIONARYVAR
  5
3EB
102
{ACAD_REACTORS
330
3D2
102
}
330
3D2
100
DictionaryVariables
280
     0
  1
Metric50
  0
DICTIONARY
  5
3ED
330
5A
100
AcDbDictionary
280
     1
281
     1
  3
ACAD_ROUNDTRIP_2008_TABLESTYLE_CELLSTYLEMAP
360
3EE
  0
CELLSTYLEMAP
  5
3EE
102
{ACAD_REACTORS
330
3ED
102
}
330
3ED
100
AcDbCellStyleMap
 90
        3
300
CELLSTYLE
  1
TABLEFORMAT_BEGIN
 90
        5
170
     1
 91
        0
 92
    32768
 62
   257
 93
        1
300
CONTENTFORMAT
  1
CONTENTFORMAT_BEGIN
 90
        0
 91
        0
 92
        4
 93
        0
300

 40
0.0
140
1.0
 94
        5
 62
     0
340
11
144
6.0
309
CONTENTFORMAT_END
171
     1
301
MARGIN
  1
CELLMARGIN_BEGIN
 40
1.5
 40
1.5
 40
1.5
 40
1.5
 40
1.5
 40
1.5
309
CELLMARGIN_END
 94
        6
 95
        1
302
GRIDFORMAT
  1
GRIDFORMAT_BEGIN
 90
        0
 91
        1
 62
     0
 92
       -2
340
14
 93
        0
 40
0.045
309
GRIDFORMAT_END
 95
        2
302
GRIDFORMAT
  1
GRIDFORMAT_BEGIN
 90
        0
 91
        1
 62
     0
 92
       -2
340
14
 93
        0
 40
0.045
309
GRIDFORMAT_END
 95
        4
302
GRIDFORMAT
  1
GRIDFORMAT_BEGIN
 90
        0
 91
        1
 62
     0
 92
       -2
340
14
 93
        0
 40
0.045
309
GRIDFORMAT_END
 95
        8
302
GRIDFORMAT
  1
GRIDFORMAT_BEGIN
 90
        0
 91
        1
 62
     0
 92
       -2
340
14
 93
        0
 40
0.045
309
GRIDFORMAT_END
 95
       16
302
GRIDFORMAT
  1
GRIDFORMAT_BEGIN
 90
        0
 91
        1
 62
     0
 92
       -2
340
14
 93
        0
 40
0.045
309
GRIDFORMAT_END
 95
       32
302
GRIDFORMAT
  1
GRIDFORMAT_BEGIN
 90
        0
 91
        1
 62
     0
 92
       -2
340
14
 93
        0
 40
0.045
309
GRIDFORMAT_END
309
TABLEFORMAT_END
  1
CELLSTYLE_BEGIN
 90
        1
 91
        1
300
_TITLE
309
CELLSTYLE_END
300
CELLSTYLE
  1
TABLEFORMAT_BEGIN
 90
        5
170
     1
 91
        0
 92
        0
 62
   257
 93
        1
300
CONTENTFORMAT
  1
CONTENTFORMAT_BEGIN
 90
        0
 91
        0
 92
        4
 93
        0
300

 40
0.0
140
1.0
 94
        5
 62
     0
340
11
144
4.5
309
CONTENTFORMAT_END
171
     1
301
MARGIN
  1
CELLMARGIN_BEGIN
 40
1.5
 40
1.5
 40
1.5
 40
1.5
 40
1.5
 40
1.5
309
CELLMARGIN_END
 94
        6
 95
        1
302
GRIDFORMAT
  1
GRIDFORMAT_BEGIN
 90
        0
 91
        1
 62
     0
 92
       -2
340
14
 93
        0
 40
0.045
309
GRIDFORMAT_END
 95
        2
302
GRIDFORMAT
  1
GRIDFORMAT_BEGIN
 90
        0
 91
        1
 62
     0
 92
       -2
340
14
 93
        0
 40
0.045
309
GRIDFORMAT_END
 95
        4
302
GRIDFORMAT
  1
GRIDFORMAT_BEGIN
 90
        0
 91
        1
 62
     0
 92
       -2
340
14
 93
        0
 40
0.045
309
GRIDFORMAT_END
 95
        8
302
GRIDFORMAT
  1
GRIDFORMAT_BEGIN
 90
        0
 91
        1
 62
     0
 92
       -2
340
14
 93
        0
 40
0.045
309
GRIDFORMAT_END
 95
       16
302
GRIDFORMAT
  1
GRIDFORMAT_BEGIN
 90
        0
 91
        1
 62
     0
 92
       -2
340
14
 93
        0
 40
0.045
309
GRIDFORMAT_END
 95
       32
302
GRIDFORMAT
  1
GRIDFORMAT_BEGIN
 90
        0
 91
        1
 62
     0
 92
       -2
340
14
 93
        0
 40
0.045
309
GRIDFORMAT_END
309
TABLEFORMAT_END
  1
CELLSTYLE_BEGIN
 90
        2
 91
        1
300
_HEADER
309
CELLSTYLE_END
300
CELLSTYLE
  1
TABLEFORMAT_BEGIN
 90
        5
170
     1
 91
        0
 92
        0
 62
   257
 93
        1
300
CONTENTFORMAT
  1
CONTENTFORMAT_BEGIN
 90
        0
 91
        0
 92
        4
 93
        0
300

 40
0.0
140
1.0
 94
        2
 62
     0
340
11
144
4.5
309
CONTENTFORMAT_END
171
     1
301
MARGIN
  1
CELLMARGIN_BEGIN
 40
1.5
 40
1.5
 40
1.5
 40
1.5
 40
1.5
 40
1.5
309
CELLMARGIN_END
 94
        6
 95
        1
302
GRIDFORMAT
  1
GRIDFORMAT_BEGIN
 90
        0
 91
        1
 62
     0
 92
       -2
340
14
 93
        0
 40
0.045
309
GRIDFORMAT_END
 95
        2
302
GRIDFORMAT
  1
GRIDFORMAT_BEGIN
 90
        0
 91
        1
 62
     0
 92
       -2
340
14
 93
        0
 40
0.045
309
GRIDFORMAT_END
 95
        4
302
GRIDFORMAT
  1
GRIDFORMAT_BEGIN
 90
        0
 91
        1
 62
     0
 92
       -2
340
14
 93
        0
 40
0.045
309
GRIDFORMAT_END
 95
        8
302
GRIDFORMAT
  1
GRIDFORMAT_BEGIN
 90
        0
 91
        1
 62
     0
 92
       -2
340
14
 93
        0
 40
0.045
309
GRIDFORMAT_END
 95
       16
302
GRIDFORMAT
  1
GRIDFORMAT_BEGIN
 90
        0
 91
        1
 62
     0
 92
       -2
340
14
 93
        0
 40
0.045
309
GRIDFORMAT_END
 95
       32
302
GRIDFORMAT
  1
GRIDFORMAT_BEGIN
 90
        0
 91
        1
 62
     0
 92
       -2
340
14
 93
        0
 40
0.045
309
GRIDFORMAT_END
309
TABLEFORMAT_END
  1
CELLSTYLE_BEGIN
 90
        3
 91
        2
300
_DATA
309
CELLSTYLE_END
  0
ENDSEC
  0
EOF
