  0
SECTION
  2
HEADER
  9
$ACADVER
  1
AC1032
  9
$ACADMAINTVER
 90
      155
  9
$DWGCODEPAGE
  3
ANSI_1252
  9
$LASTSAVEDBY
  1
monika
  9
$REQUIREDVERSIONS
160
                 0
  9
$INSBASE
 10
0.0
 20
0.0
 30
0.0
  9
$EXTMIN
 10
100.0
 20
99.99999999999991
 30
0.0
  9
$EXTMAX
 10
8300.0
 20
5840.0
 30
0.0
  9
$LIMMIN
 10
0.0
 20
0.0
  9
$LIMMAX
 10
8400.0
 20
5940.0
  9
$ORTHOMODE
 70
     0
  9
$REGENMODE
 70
     1
  9
$FILLMODE
 70
     1
  9
$QTEXTMODE
 70
     0
  9
$MIRRTEXT
 70
     1
  9
$LTSCALE
 40
20.0
  9
$ATTMODE
 70
     1
  9
$TEXTSIZE
 40
98.77777777777778
  9
$TRACEWID
 40
1.0
  9
$TEXTSTYLE
  7
Standard
  9
$CLAYER
  8
0
  9
$CELTYPE
  6
ByLayer
  9
$CECOLOR
 62
   256
  9
$CELTSCALE
 40
1.0
  9
$DISPSILH
 70
     0
  9
$DIMSCALE
 40
1.0
  9
$DIMASZ
 40
74.08333333333333
  9
$DIMEXO
 40
60.0
  9
$DIMDLI
 40
3.75
  9
$DIMRND
 40
0.0
  9
$DIMDLE
 40
0.0
  9
$DIMEXE
 40
19.812
  9
$DIMTP
 40
0.0
  9
$DIMTM
 40
0.0
  9
$DIMTXT
 40
98.77777777777778
  9
$DIMCEN
 40
2.5
  9
$DIMTSZ
 40
0.0
  9
$DIMTOL
 70
     0
  9
$DIMLIM
 70
     0
  9
$DIMTIH
 70
     1
  9
$DIMTOH
 70
     1
  9
$DIMSE1
 70
     0
  9
$DIMSE2
 70
     0
  9
$DIMTAD
 70
     1
  9
$DIMZIN
 70
     0
  9
$DIMBLK
  1

  9
$DIMASO
 70
     1
  9
$DIMSHO
 70
     1
  9
$DIMPOST
  1

  9
$DIMAPOST
  1

  9
$DIMALT
 70
     0
  9
$DIMALTD
 70
     3
  9
$DIMALTF
 40
0.0393700787401575
  9
$DIMLFAC
 40
1.0
  9
$DIMTOFL
 70
     1
  9
$DIMTVP
 40
0.0
  9
$DIMTIX
 70
     0
  9
$DIMSOXD
 70
     0
  9
$DIMSAH
 70
     0
  9
$DIMBLK1
  1

  9
$DIMBLK2
  1

  9
$DIMSTYLE
  2
ISO-25
  9
$DIMCLRD
 70
     0
  9
$DIMCLRE
 70
     0
  9
$DIMCLRT
 70
     0
  9
$DIMTFAC
 40
1.0
  9
$DIMGAP
 40
30.48
  9
$DIMJUST
 70
     0
  9
$DIMSD1
 70
     0
  9
$DIMSD2
 70
     0
  9
$DIMTOLJ
 70
     0
  9
$DIMTZIN
 70
     0
  9
$DIMALTZ
 70
     0
  9
$DIMALTTZ
 70
     0
  9
$DIMUPT
 70
     0
  9
$DIMDEC
 70
     0
  9
$DIMTDEC
 70
     2
  9
$DIMALTU
 70
     2
  9
$DIMALTTD
 70
     3
  9
$DIMTXSTY
  7
Standard
  9
$DIMAUNIT
 70
     0
  9
$DIMADEC
 70
     1
  9
$DIMALTRND
 40
0.0
  9
$DIMAZIN
 70
     0
  9
$DIMDSEP
 70
    44
  9
$DIMATFIT
 70
     3
  9
$DIMFRAC
 70
     0
  9
$DIMLDRBLK
  1

  9
$DIMLUNIT
 70
     2
  9
$DIMLWD
 70
    -2
  9
$DIMLWE
 70
    -2
  9
$DIMTMOVE
 70
     0
  9
$DIMFXL
 40
1.0
  9
$DIMFXLON
 70
     0
  9
$DIMJOGANG
 40
0.7853981633974483
  9
$DIMTFILL
 70
     0
  9
$DIMTFILLCLR
 70
     0
  9
$DIMARCSYM
 70
     0
  9
$DIMLTYPE
  6

  9
$DIMLTEX1
  6

  9
$DIMLTEX2
  6

  9
$DIMTXTDIRECTION
 70
     0
  9
$LUNITS
 70
     2
  9
$LUPREC
 70
     0
  9
$SKETCHINC
 40
1.0
  9
$FILLETRAD
 40
0.0
  9
$AUNITS
 70
     0
  9
$AUPREC
 70
     1
  9
$MENU
  1
.
  9
$ELEVATION
 40
0.0
  9
$PELEVATION
 40
0.0
  9
$THICKNESS
 40
0.0
  9
$LIMCHECK
 70
     0
  9
$CHAMFERA
 40
0.0
  9
$CHAMFERB
 40
0.0
  9
$CHAMFERC
 40
0.0
  9
$CHAMFERD
 40
0.0
  9
$SKPOLY
 70
     0
  9
$TDCREATE
 40
2460693.343275463
  9
$TDUCREATE
 40
2460693.301614768
  9
$TDUPDATE
 40
2460696.666018519
  9
$TDUUPDATE
 40
2460696.624351851
  9
$TDINDWG
 40
0.0004514005
  9
$TDUSRTIMER
 40
0.0004514005
  9
$USRTIMER
 70
     1
  9
$ANGBASE
 50
0.0
  9
$ANGDIR
 70
     0
  9
$PDMODE
 70
     0
  9
$PDSIZE
 40
-1.0
  9
$PLINEWID
 40
0.0
  9
$SPLFRAME
 70
     0
  9
$SPLINETYPE
 70
     6
  9
$SPLINESEGS
 70
     8
  9
$HANDSEED
  5
123
  9
$SURFTAB1
 70
     6
  9
$SURFTAB2
 70
     6
  9
$SURFTYPE
 70
     6
  9
$SURFU
 70
     6
  9
$SURFV
 70
     6
  9
$UCSBASE
  2

  9
$UCSNAME
  2

  9
$UCSORG
 10
0.0
 20
0.0
 30
0.0
  9
$UCSXDIR
 10
1.0
 20
0.0
 30
0.0
  9
$UCSYDIR
 10
0.0
 20
1.0
 30
0.0
  9
$UCSORTHOREF
  2

  9
$UCSORTHOVIEW
 70
     0
  9
$UCSORGTOP
 10
0.0
 20
0.0
 30
0.0
  9
$UCSORGBOTTOM
 10
0.0
 20
0.0
 30
0.0
  9
$UCSORGLEFT
 10
0.0
 20
0.0
 30
0.0
  9
$UCSORGRIGHT
 10
0.0
 20
0.0
 30
0.0
  9
$UCSORGFRONT
 10
0.0
 20
0.0
 30
0.0
  9
$UCSORGBACK
 10
0.0
 20
0.0
 30
0.0
  9
$PUCSBASE
  2

  9
$PUCSNAME
  2

  9
$PUCSORG
 10
0.0
 20
0.0
 30
0.0
  9
$PUCSXDIR
 10
1.0
 20
0.0
 30
0.0
  9
$PUCSYDIR
 10
0.0
 20
1.0
 30
0.0
  9
$PUCSORTHOREF
  2

  9
$PUCSORTHOVIEW
 70
     0
  9
$PUCSORGTOP
 10
0.0
 20
0.0
 30
0.0
  9
$PUCSORGBOTTOM
 10
0.0
 20
0.0
 30
0.0
  9
$PUCSORGLEFT
 10
0.0
 20
0.0
 30
0.0
  9
$PUCSORGRIGHT
 10
0.0
 20
0.0
 30
0.0
  9
$PUCSORGFRONT
 10
0.0
 20
0.0
 30
0.0
  9
$PUCSORGBACK
 10
0.0
 20
0.0
 30
0.0
  9
$USERI1
 70
     0
  9
$USERI2
 70
     0
  9
$USERI3
 70
     0
  9
$USERI4
 70
     0
  9
$USERI5
 70
     0
  9
$USERR1
 40
0.0
  9
$USERR2
 40
0.0
  9
$USERR3
 40
0.0
  9
$USERR4
 40
0.0
  9
$USERR5
 40
0.0
  9
$WORLDVIEW
 70
     1
  9
$SHADEDGE
 70
     3
  9
$SHADEDIF
 70
    70
  9
$TILEMODE
 70
     1
  9
$MAXACTVP
 70
    64
  9
$PINSBASE
 10
0.0
 20
0.0
 30
0.0
  9
$PLIMCHECK
 70
     0
  9
$PEXTMIN
 10
1.000000000000000E+20
 20
1.000000000000000E+20
 30
1.000000000000000E+20
  9
$PEXTMAX
 10
-1.000000000000000E+20
 20
-1.000000000000000E+20
 30
-1.000000000000000E+20
  9
$PLIMMIN
 10
0.0
 20
0.0
  9
$PLIMMAX
 10
420.0
 20
297.0
  9
$UNITMODE
 70
     0
  9
$VISRETAIN
 70
     1
  9
$PLINEGEN
 70
     0
  9
$PSLTSCALE
 70
     1
  9
$TREEDEPTH
 70
  3020
  9
$CMLSTYLE
  2
Standard
  9
$CMLJUST
 70
     0
  9
$CMLSCALE
 40
20.0
  9
$PROXYGRAPHICS
 70
     1
  9
$MEASUREMENT
 70
     1
  9
$CELWEIGHT
370
    -1
  9
$ENDCAPS
280
     0
  9
$JOINSTYLE
280
     0
  9
$LWDISPLAY
290
     1
  9
$INSUNITS
 70
     4
  9
$HYPERLINKBASE
  1

  9
$STYLESHEET
  1

  9
$XEDIT
290
     1
  9
$CEPSNTYPE
380
     0
  9
$PSTYLEMODE
290
     1
  9
$FINGERPRINTGUID
  2
{f03f5a08-59ea-4d1b-be61-18334dd6775c}
  9
$VERSIONGUID
  2
{47FA29F1-D4C6-B449-A223-3445766C8CD6}
  9
$EXTNAMES
290
     1
  9
$PSVPSCALE
 40
0.0
  9
$OLESTARTUP
290
     0
  9
$SORTENTS
280
   127
  9
$INDEXCTL
280
     0
  9
$HIDETEXT
280
     1
  9
$XCLIPFRAME
280
     2
  9
$HALOGAP
280
     0
  9
$OBSCOLOR
 70
   257
  9
$OBSLTYPE
280
     0
  9
$INTERSECTIONDISPLAY
280
     0
  9
$INTERSECTIONCOLOR
 70
   257
  9
$DIMASSOC
280
     2
  9
$PROJECTNAME
  1

  9
$CAMERADISPLAY
290
     0
  9
$LENSLENGTH
 40
50.0
  9
$CAMERAHEIGHT
 40
0.0
  9
$STEPSPERSEC
 40
2.0
  9
$STEPSIZE
 40
6.0
  9
$3DDWFPREC
 40
2.0
  9
$PSOLWIDTH
 40
5.0
  9
$PSOLHEIGHT
 40
80.0
  9
$LOFTANG1
 40
1.570796326794896
  9
$LOFTANG2
 40
1.570796326794896
  9
$LOFTMAG1
 40
0.0
  9
$LOFTMAG2
 40
0.0
  9
$LOFTPARAM
 70
     7
  9
$LOFTNORMALS
280
     1
  9
$LATITUDE
 40
37.795
  9
$LONGITUDE
 40
-122.394
  9
$NORTHDIRECTION
 40
0.0
  9
$TIMEZONE
 70
 -8000
  9
$LIGHTGLYPHDISPLAY
280
     1
  9
$TILEMODELIGHTSYNCH
280
     1
  9
$CMATERIAL
347
44
  9
$SOLIDHIST
280
     0
  9
$SHOWHIST
280
     1
  9
$DWFFRAME
280
     2
  9
$DGNFRAME
280
     2
  9
$REALWORLDSCALE
290
     1
  9
$INTERFERECOLOR
 62
   256
  9
$INTERFEREOBJVS
345
33
  9
$INTERFEREVPVS
346
30
  9
$CSHADOW
280
     0
  9
$SHADOWPLANELOCATION
 40
0.0
  0
ENDSEC
  0
SECTION
  2
CLASSES
  0
CLASS
  1
ACDBDICTIONARYWDFLT
  2
AcDbDictionaryWithDefault
  3
ObjectDBX Classes
 90
        0
 91
        1
280
     0
281
     0
  0
CLASS
  1
VISUALSTYLE
  2
AcDbVisualStyle
  3
ObjectDBX Classes
 90
     4095
 91
       24
280
     0
281
     0
  0
CLASS
  1
MATERIAL
  2
AcDbMaterial
  3
ObjectDBX Classes
 90
     1153
 91
        3
280
     0
281
     0
  0
CLASS
  1
SCALE
  2
AcDbScale
  3
ObjectDBX Classes
 90
     1153
 91
       17
280
     0
281
     0
  0
CLASS
  1
TABLESTYLE
  2
AcDbTableStyle
  3
ObjectDBX Classes
 90
     4095
 91
        1
280
     0
281
     0
  0
CLASS
  1
MLEADERSTYLE
  2
AcDbMLeaderStyle
  3
ACDB_MLEADERSTYLE_CLASS
 90
     4095
 91
        1
280
     0
281
     0
  0
CLASS
  1
SUN
  2
AcDbSun
  3
SCENEOE
 90
     1153
 91
        1
280
     0
281
     0
  0
CLASS
  1
DICTIONARYVAR
  2
AcDbDictionaryVar
  3
ObjectDBX Classes
 90
        0
 91
        9
280
     0
281
     0
  0
CLASS
  1
ACDBSECTIONVIEWSTYLE
  2
AcDbSectionViewStyle
  3
ObjectDBX Classes
 90
     1025
 91
        1
280
     0
281
     0
  0
CLASS
  1
ACDBDETAILVIEWSTYLE
  2
AcDbDetailViewStyle
  3
ObjectDBX Classes
 90
     1025
 91
        1
280
     0
281
     0
  0
CLASS
  1
RAPIDRTRENDERSETTINGS
  2
AcDbRapidRTRenderSettings
  3
ObjectDBX Classes
 90
     1024
 91
        7
280
     0
281
     0
  0
CLASS
  1
CELLSTYLEMAP
  2
AcDbCellStyleMap
  3
ObjectDBX Classes
 90
     1152
 91
        1
280
     0
281
     0
  0
ENDSEC
  0
SECTION
  2
TABLES
  0
TABLE
  2
VPORT
  5
8
330
0
100
AcDbSymbolTable
 70
     1
  0
VPORT
  5
29
330
8
100
AcDbSymbolTableRecord
100
AcDbViewportTableRecord
  2
*Active
 70
     0
 10
0.0
 20
0.0
 11
1.0
 21
1.0
 12
8591.885881611245
 22
3355.717148553321
 13
0.0
 23
0.0
 14
10.0
 24
10.0
 15
10.0
 25
10.0
 16
0.0
 26
0.0
 36
1.0
 17
0.0
 27
0.0
 37
0.0
 40
15197.21134123138
 41
1.425463336019339
 42
50.0
 43
0.0
 44
0.0
 50
0.0
 51
0.0
 71
     0
 72
  2000
 73
     1
 74
     3
 75
     0
 76
     0
 77
     0
 78
     0
281
     0
 65
     1
110
0.0
120
0.0
130
0.0
111
1.0
121
0.0
131
0.0
112
0.0
122
1.0
132
0.0
 79
     0
146
0.0
348
2F
 60
     3
 61
     5
292
     1
282
     1
141
0.0
142
0.0
 63
   250
361
5D
1001
ACAD_NAV_VCDISPLAY
1070
     3
  0
ENDTAB
  0
TABLE
  2
LTYPE
  5
5
330
0
100
AcDbSymbolTable
 70
     6
  0
LTYPE
  5
14
330
5
100
AcDbSymbolTableRecord
100
AcDbLinetypeTableRecord
  2
ByBlock
 70
     0
  3

 72
    65
 73
     0
 40
0.0
  0
LTYPE
  5
15
330
5
100
AcDbSymbolTableRecord
100
AcDbLinetypeTableRecord
  2
ByLayer
 70
     0
  3

 72
    65
 73
     0
 40
0.0
  0
LTYPE
  5
16
330
5
100
AcDbSymbolTableRecord
100
AcDbLinetypeTableRecord
  2
Continuous
 70
     0
  3
Solid line
 72
    65
 73
     0
 40
0.0
  0
LTYPE
  5
5E
330
5
100
AcDbSymbolTableRecord
100
AcDbLinetypeTableRecord
  2
HIDDEN
 70
     0
  3
Hidden __ __ __ __ __ __ __ __ __ __ __ __ __ __
 72
    65
 73
     2
 40
1.905
 49
1.27
 74
     0
 49
-0.635
 74
     0
  0
LTYPE
  5
5F
330
5
100
AcDbSymbolTableRecord
100
AcDbLinetypeTableRecord
  2
PHANTOM
 70
     0
  3
Phantom ______  __  __  ______  __  __  ______
 72
    65
 73
     6
 40
12.7
 49
6.349999999999999
 74
     0
 49
-1.27
 74
     0
 49
1.27
 74
     0
 49
-1.27
 74
     0
 49
1.27
 74
     0
 49
-1.27
 74
     0
  0
LTYPE
  5
60
330
5
100
AcDbSymbolTableRecord
100
AcDbLinetypeTableRecord
  2
CENTER
 70
     0
  3
Center ____ _ ____ _ ____ _ ____ _ ____ _ ____
 72
    65
 73
     4
 40
10.16
 49
6.349999999999999
 74
     0
 49
-1.27
 74
     0
 49
1.27
 74
     0
 49
-1.27
 74
     0
  0
LTYPE
  5
61
330
5
100
AcDbSymbolTableRecord
100
AcDbLinetypeTableRecord
  2
CENTERX2
 70
     0
  3
Center (2x) ________  __  ________  __  _____
 72
    65
 73
     4
 40
20.32
 49
12.7
 74
     0
 49
-2.54
 74
     0
 49
2.54
 74
     0
 49
-2.54
 74
     0
  0
LTYPE
  5
62
330
5
100
AcDbSymbolTableRecord
100
AcDbLinetypeTableRecord
  2
DOT2
 70
     0
  3
Dot (.5x) ........................................
 72
    65
 73
     2
 40
0.635
 49
0.0
 74
     0
 49
-0.635
 74
     0
  0
ENDTAB
  0
TABLE
  2
LAYER
  5
2
330
0
100
AcDbSymbolTable
 70
     2
  0
LAYER
  5
10
330
2
100
AcDbSymbolTableRecord
100
AcDbLayerTableRecord
  2
0
 70
     0
 62
     7
  6
Continuous
370
    -3
390
F
347
46
348
0
  0
LAYER
  5
63
330
2
100
AcDbSymbolTableRecord
100
AcDbLayerTableRecord
  2
FORMAT
 70
     0
 62
     7
  6
Continuous
370
    -3
390
F
347
46
348
0
  0
ENDTAB
  0
TABLE
  2
STYLE
  5
3
330
0
100
AcDbSymbolTable
 70
     2
  0
STYLE
  5
11
330
3
100
AcDbSymbolTableRecord
100
AcDbTextStyleTableRecord
  2
Standard
 70
     0
 40
0.0
 41
1.0
 50
0.0
 71
     0
 42
98.77777777777778
  3
txt
  4

  0
STYLE
  5
6B
330
3
100
AcDbSymbolTableRecord
100
AcDbTextStyleTableRecord
  2
SLDTEXTSTYLE0
 70
     0
 40
0.0
 41
0.75
 50
0.0
 71
     0
 42
98.77777777777778
  3
TXT
  4

  0
ENDTAB
  0
TABLE
  2
VIEW
  5
6
330
0
100
AcDbSymbolTable
 70
     0
  0
ENDTAB
  0
TABLE
  2
UCS
  5
7
330
0
100
AcDbSymbolTable
 70
     0
  0
ENDTAB
  0
TABLE
  2
APPID
  5
9
330
0
100
AcDbSymbolTable
 70
     2
  0
APPID
  5
12
330
9
100
AcDbSymbolTableRecord
100
AcDbRegAppTableRecord
  2
ACAD
 70
     0
  0
APPID
  5
11B
330
9
100
AcDbSymbolTableRecord
100
AcDbRegAppTableRecord
  2
ACAD_NAV_VCDISPLAY
 70
     0
  0
ENDTAB
  0
TABLE
  2
DIMSTYLE
  5
A
330
0
100
AcDbSymbolTable
 70
     1
100
AcDbDimStyleTable
 71
     0
  0
DIMSTYLE
105
27
330
A
100
AcDbSymbolTableRecord
100
AcDbDimStyleTableRecord
  2
ISO-25
 70
     0
 41
2.5
 42
0.625
 43
3.75
 44
1.25
 73
     0
 74
     0
 77
     1
 78
     8
140
2.5
141
2.5
143
0.03937007874016
147
0.625
171
     3
172
     1
271
     2
272
     2
274
     3
278
    44
283
     0
284
     8
340
11
  0
ENDTAB
  0
TABLE
  2
BLOCK_RECORD
  5
1
330
0
100
AcDbSymbolTable
 70
     1
  0
BLOCK_RECORD
  5
1F
330
1
100
AcDbSymbolTableRecord
100
AcDbBlockTableRecord
  2
*Model_Space
340
22
 70
     0
280
     1
281
     0
  0
BLOCK_RECORD
  5
1B
330
1
100
AcDbSymbolTableRecord
100
AcDbBlockTableRecord
  2
*Paper_Space
340
1E
 70
     0
280
     1
281
     0
  0
BLOCK_RECORD
  5
23
330
1
100
AcDbSymbolTableRecord
100
AcDbBlockTableRecord
  2
*Paper_Space0
340
26
 70
     0
280
     1
281
     0
  0
ENDTAB
  0
ENDSEC
  0
SECTION
  2
BLOCKS
  0
BLOCK
  5
20
330
1F
100
AcDbEntity
  8
0
100
AcDbBlockBegin
  2
*Model_Space
 70
     0
 10
0.0
 20
0.0
 30
0.0
  3
*Model_Space
  1

  0
ENDBLK
  5
21
330
1F
100
AcDbEntity
  8
0
100
AcDbBlockEnd
  0
BLOCK
  5
1C
330
1B
100
AcDbEntity
 67
     1
  8
0
100
AcDbBlockBegin
  2
*Paper_Space
 70
     0
 10
0.0
 20
0.0
 30
0.0
  3
*Paper_Space
  1

  0
ENDBLK
  5
1D
330
1B
100
AcDbEntity
 67
     1
  8
0
100
AcDbBlockEnd
  0
BLOCK
  5
24
330
23
100
AcDbEntity
 67
     1
  8
0
100
AcDbBlockBegin
  2
*Paper_Space0
 70
     0
 10
0.0
 20
0.0
 30
0.0
  3
*Paper_Space0
  1

  0
ENDBLK
  5
25
330
23
100
AcDbEntity
 67
     1
  8
0
100
AcDbBlockEnd
  0
ENDSEC
  0
SECTION
  2
ENTITIES
  0
SPLINE
  5
6F
330
1F
100
AcDbEntity
  8
0
  6
Continuous
 62
     7
370
    25
100
AcDbSpline
210
0.0
220
0.0
230
1.0
 70
     8
 71
     3
 72
    16
 73
    12
 74
     0
 42
0.00000001
 43
0.0000000001
 40
0.0
 40
0.0
 40
0.0
 40
0.0
 40
0.0669350249751306
 40
0.1898217765578725
 40
0.3127821492550451
 40
0.4357424354197655
 40
0.5587023992017223
 40
0.6816619564891584
 40
0.8046210564245807
 40
0.9275796853804155
 40
1.0
 40
1.0
 40
1.0
 40
1.0
 10
4215.160757376085
 20
3053.01990096195
 30
0.0
 10
4214.799745670198
 20
3052.977073242279
 30
0.0
 10
4213.775948586458
 20
3052.855617639075
 30
0.0
 10
4212.12300990073
 20
3052.434012338172
 30
0.0
 10
4210.26253161621
 20
3051.678608847885
 30
0.0
 10
4208.528950218638
 20
3050.661494011833
 30
0.0
 10
4206.958980404048
 20
3049.408280271443
 30
0.0
 10
4205.580668658327
 20
3047.944632523159
 30
0.0
 10
4204.437675292489
 20
3046.295778121241
 30
0.0
 10
4203.624708761493
 20
3044.758403581805
 30
0.0
 10
4203.309122226213
 20
3043.744599721794
 30
0.0
 10
4203.192145054792
 20
3043.368817187807
 30
0.0
  0
SPLINE
  5
70
330
1F
100
AcDbEntity
  8
0
  6
Continuous
 62
     7
370
    25
100
AcDbSpline
210
0.0
220
0.0
230
1.0
 70
     8
 71
     3
 72
    18
 73
    14
 74
     0
 42
0.00000001
 43
0.0000000001
 40
0.0
 40
0.0
 40
0.0
 40
0.0
 40
0.0378199631233413
 40
0.1408032209815148
 40
0.2437866374369146
 40
0.3467703104707844
 40
0.4497543170908167
 40
0.5527387070794334
 40
0.6557234989784421
 40
0.758708678624712
 40
0.8616942003415568
 40
0.9646799906766966
 40
1.0
 40
1.0
 40
1.0
 40
1.0
 10
4229.924788729888
 20
3042.882018389692
 30
0.0
 10
4229.866587415949
 20
3043.120318313629
 30
0.0
 10
4229.649904696263
 20
3044.007505769115
 30
0.0
 10
4228.990821055241
 20
3045.45649910964
 30
0.0
 10
4227.967527581536
 20
3047.180838310497
 30
0.0
 10
4226.691067756346
 20
3048.734611677293
 30
0.0
 10
4225.210624631257
 20
3050.092256669405
 30
0.0
 10
4223.550297956125
 20
3051.224388001828
 30
0.0
 10
4221.745765756972
 20
3052.10802677697
 30
0.0
 10
4219.833324629474
 20
3052.725943518116
 30
0.0
 10
4217.852912570634
 20
3053.06189184056
 30
0.0
 10
4216.282777755282
 20
3053.109260950914
 30
0.0
 10
4215.389005529321
 20
3053.038079109898
 30
0.0
 10
4215.160757376085
 20
3053.01990096195
 30
0.0
  0
SPLINE
  5
71
330
1F
100
AcDbEntity
  8
0
  6
Continuous
 62
     7
370
    25
100
AcDbSpline
210
0.0
220
0.0
230
1.0
 70
     8
 71
     3
 72
    18
 73
    14
 74
     0
 42
0.00000001
 43
0.0000000001
 40
0.0
 40
0.0
 40
0.0
 40
0.0
 40
0.0539400123284518
 40
0.153285307325751
 40
0.2526848966309166
 40
0.3520844243959776
 40
0.4514837314271914
 40
0.5508827590889017
 40
0.6502814695383603
 40
0.7496798484282225
 40
0.8490779060030286
 40
0.9484756763681909
 40
1.0
 40
1.0
 40
1.0
 40
1.0
 10
4215.029503521253
 20
3056.553692434773
 30
0.0
 10
4214.652161705716
 20
3056.509366313125
 30
0.0
 10
4213.579841666013
 20
3056.383401507297
 30
0.0
 10
4211.845504245487
 20
3055.954667114184
 30
0.0
 10
4209.884718102319
 20
3055.189667688371
 30
0.0
 10
4208.046611401937
 20
3054.16084810315
 30
0.0
 10
4206.365603736686
 20
3052.892495498599
 30
0.0
 10
4204.872705400563
 20
3051.406919171999
 30
0.0
 10
4203.597008446623
 20
3049.731998719682
 30
0.0
 10
4202.557349441881
 20
3047.899331527205
 30
0.0
 10
4201.791431237292
 20
3045.941153624569
 30
0.0
 10
4201.332750001703
 20
3044.228564776808
 30
0.0
 10
4201.242662813871
 20
3043.168910885981
 30
0.0
 10
4201.211907334021
 20
3042.807148412624
 30
0.0
  0
SPLINE
  5
72
330
1F
100
AcDbEntity
  8
0
  6
Continuous
 62
     7
370
    25
100
AcDbSpline
210
0.0
220
0.0
230
1.0
 70
     8
 71
     3
 72
    19
 73
    15
 74
     0
 42
0.00000001
 43
0.0000000001
 40
0.0
 40
0.0
 40
0.0
 40
0.0
 40
0.0852208104704314
 40
0.1725661813436453
 40
0.2599116206355674
 40
0.3472572036560389
 40
0.4346029950085372
 40
0.5219490438027521
 40
0.6092953800308438
 40
0.696642012371224
 40
0.7839889275748125
 40
0.8713360914707058
 40
0.9586834515098303
 40
1.0
 40
1.0
 40
1.0
 40
1.0
 10
4231.788955656038
 20
3042.807148412624
 30
0.0
 10
4231.694415086909
 20
3043.484315915002
 30
0.0
 10
4231.502977046054
 20
3044.855532750075
 30
0.0
 10
4230.861154279152
 20
3046.846717616609
 30
0.0
 10
4229.968164751381
 20
3048.752055229017
 30
0.0
 10
4228.818334582377
 20
3050.516890444593
 30
0.0
 10
4227.440448189473
 20
3052.109155228074
 30
0.0
 10
4225.858181487953
 20
3053.498976017496
 30
0.0
 10
4224.10150565707
 20
3054.660623017095
 30
0.0
 10
4222.203029727025
 20
3055.572129024354
 30
0.0
 10
4220.197948238663
 20
3056.217745647727
 30
0.0
 10
4218.124268067302
 20
3056.58090789341
 30
0.0
 10
4216.388008052452
 20
3056.655842426084
 30
0.0
 10
4215.359710412808
 20
3056.57852167187
 30
0.0
 10
4215.029503521253
 20
3056.553692434773
 30
0.0
  0
SPLINE
  5
73
330
1F
100
AcDbEntity
  8
0
  6
Continuous
 62
     7
370
    25
100
AcDbSpline
210
0.0
220
0.0
230
1.0
 70
     8
 71
     3
 72
    19
 73
    15
 74
     0
 42
0.00000001
 43
0.0000000001
 40
0.0
 40
0.0
 40
0.0
 40
0.0
 40
0.0506720660167324
 40
0.144277481394022
 40
0.2379293943284575
 40
0.3315812565890062
 40
0.4252329438504096
 40
0.5188844089287615
 40
0.6125356196327465
 40
0.7061865608546299
 40
0.7998372356093883
 40
0.8934876648540015
 40
0.9871378860931258
 40
1.0
 40
1.0
 40
1.0
 40
1.0
 10
4214.879683336294
 20
3058.210790762509
 30
0.0
 10
4214.484510241216
 20
3058.164819992583
 30
0.0
 10
4213.359342405079
 20
3058.033928410218
 30
0.0
 10
4211.536468964648
 20
3057.597351516552
 30
0.0
 10
4209.467002310007
 20
3056.821946649222
 30
0.0
 10
4207.515845259286
 20
3055.780785356118
 30
0.0
 10
4205.715963110531
 20
3054.496567835363
 30
0.0
 10
4204.097987573958
 20
3052.989621053184
 30
0.0
 10
4202.688529585452
 20
3051.285778573224
 30
0.0
 10
4201.513916638116
 20
3049.413555526967
 30
0.0
 10
4200.584516387023
 20
3047.405128290045
 30
0.0
 10
4199.951303653462
 20
3045.292335847403
 30
0.0
 10
4199.6249751653
 20
3043.743592897502
 30
0.0
 10
4199.596723742218
 20
3042.908046517097
 30
0.0
 10
4199.5933121841
 20
3042.807148412624
 30
0.0
  0
SPLINE
  5
74
330
1F
100
AcDbEntity
  8
0
  6
Continuous
 62
     7
370
    25
100
AcDbSpline
210
0.0
220
0.0
230
1.0
 70
     8
 71
     3
 72
    20
 73
    16
 74
     0
 42
0.00000001
 43
0.0000000001
 40
0.0
 40
0.0
 40
0.0
 40
0.0
 40
0.0283614655743711
 40
0.1107762651941112
 40
0.1931910744260394
 40
0.2756059551035427
 40
0.358020964238022
 40
0.4404361501642681
 40
0.5228515492933467
 40
0.6052671836772814
 40
0.6876830595459224
 40
0.7700991669092377
 40
0.8525154802461871
 40
0.9349319602293133
 40
1.0
 40
1.0
 40
1.0
 40
1.0
 10
4233.359536419149
 20
3042.807148412624
 30
0.0
 10
4233.346075559008
 20
3043.059841477369
 30
0.0
 10
4233.293499157102
 20
3044.046828340924
 30
0.0
 10
4232.908896692336
 20
3045.737145696841
 30
0.0
 10
4232.212422081519
 20
3047.831399431732
 30
0.0
 10
4231.230941045057
 20
3049.814213219643
 30
0.0
 10
4230.005803856287
 20
3051.654020690624
 30
0.0
 10
4228.551045616596
 20
3053.319269763958
 30
0.0
 10
4226.893001692507
 20
3054.781959614298
 30
0.0
 10
4225.059165387903
 20
3056.017485225606
 30
0.0
 10
4223.080663841119
 20
3057.004559845478
 30
0.0
 10
4220.990671918801
 20
3057.728173480682
 30
0.0
 10
4218.825156408524
 20
3058.169942435624
 30
0.0
 10
4216.772973953534
 20
3058.333122617963
 30
0.0
 10
4215.459270377992
 20
3058.248239824773
 30
0.0
 10
4214.879683336294
 20
3058.210790762509
 30
0.0
  0
SPLINE
  5
75
330
1F
100
AcDbEntity
  8
0
  6
Continuous
 62
     7
370
    25
100
AcDbSpline
210
0.0
220
0.0
230
1.0
 70
     8
 71
     3
 72
    19
 73
    15
 74
     0
 42
0.00000001
 43
0.0000000001
 40
0.0
 40
0.0
 40
0.0
 40
0.0
 40
0.0479346454811856
 40
0.1367015622572965
 40
0.2255088908767791
 40
0.3143161770553045
 40
0.4031233214749811
 40
0.4919302855068312
 40
0.5807370416545355
 40
0.6695435751916359
 40
0.7583498850842754
 40
0.8471559840717596
 40
0.9359618978957982
 40
1.0
 40
1.0
 40
1.0
 40
1.0
 10
4214.729863151336
 20
3059.867889090246
 30
0.0
 10
4214.31761749509
 20
3059.820337054176
 30
0.0
 10
4213.141962086004
 20
3059.68472662973
 30
0.0
 10
4211.234610745883
 20
3059.240592966994
 30
0.0
 10
4209.061762603758
 20
3058.455298858908
 30
0.0
 10
4207.003377550549
 20
3057.402628837206
 30
0.0
 10
4205.091273818034
 20
3056.103942404708
 30
0.0
 10
4203.355106757872
 20
3054.577945404757
 30
0.0
 10
4201.821413047716
 20
3052.848574276507
 30
0.0
 10
4200.514786817215
 20
3050.942350865737
 30
0.0
 10
4199.451985551472
 20
3048.889021543021
 30
0.0
 10
4198.662143764637
 20
3046.719179028605
 30
0.0
 10
4198.161283900238
 20
3044.679474148199
 30
0.0
 10
4198.053549700725
 20
3043.359984154523
 30
0.0
 10
4198.008411566748
 20
3042.807148412624
 30
0.0
  0
SPLINE
  5
76
330
1F
100
AcDbEntity
  8
0
  6
Continuous
 62
     7
370
    25
100
AcDbSpline
210
0.0
220
0.0
230
1.0
 70
     8
 71
     3
 72
    20
 73
    16
 74
     0
 42
0.00000001
 43
0.0000000001
 40
0.0
 40
0.0
 40
0.0
 40
0.0
 40
0.0613018609269262
 40
0.1395282733273464
 40
0.2177547122014297
 40
0.2959812257951135
 40
0.3742078577330978
 40
0.4524346443291832
 40
0.530661612356115
 40
0.608888777409148
 40
0.6871161429614734
 40
0.7653437001660613
 40
0.8435714284123411
 40
0.921799296600478
 40
0.9999999999999998
 40
0.9999999999999998
 40
0.9999999999999998
 40
0.9999999999999998
 10
4234.964419449851
 20
3042.807148412624
 30
0.0
 10
4234.91130978111
 20
3043.407623381603
 30
0.0
 10
4234.790427637165
 20
3044.774355717803
 30
0.0
 10
4234.265024171405
 20
3046.857364109593
 30
0.0
 10
4233.457463946881
 20
3049.020868366387
 30
0.0
 10
4232.379012543685
 20
3051.065917194277
 30
0.0
 10
4231.057581074789
 20
3052.961920551724
 30
0.0
 10
4229.510548243326
 20
3054.679358334226
 30
0.0
 10
4227.762606126089
 20
3056.191754115776
 30
0.0
 10
4225.840506554816
 20
3057.475876625972
 30
0.0
 10
4223.774024693157
 20
3058.511408835855
 30
0.0
 10
4221.594866616143
 20
3059.284226858857
 30
0.0
 10
4219.337335354907
 20
3059.775446620234
 30
0.0
 10
4217.034080551193
 20
3060.003409683341
 30
0.0
 10
4215.497846692453
 20
3059.913057391199
 30
0.0
 10
4214.729863151336
 20
3059.867889090246
 30
0.0
  0
SPLINE
  5
77
330
1F
100
AcDbEntity
  8
0
  6
Continuous
 62
     7
370
    25
100
AcDbSpline
210
0.0
220
0.0
230
1.0
 70
     8
 71
     3
 72
    20
 73
    16
 74
     0
 42
0.00000001
 43
0.0000000001
 40
0.0
 40
0.0
 40
0.0
 40
0.0
 40
0.0455877033919959
 40
0.1301830562620052
 40
0.214813952890333
 40
0.299444813471704
 40
0.3840755571789101
 40
0.4687061519241409
 40
0.5533365740892553
 40
0.6379668098236106
 40
0.7225968558416034
 40
0.8072267196220433
 40
0.8918564189950615
 40
0.9764859811375561
 40
1.0
 40
1.0
 40
1.0
 40
1.0
 10
4214.580042966377
 20
3061.524987417983
 30
0.0
 10
4214.151395415605
 20
3061.475911282806
 30
0.0
 10
4212.927323043747
 20
3061.33576644568
 30
0.0
 10
4210.93904117064
 20
3060.884337349843
 30
0.0
 10
4208.667397981941
 20
3060.089600651757
 30
0.0
 10
4206.506822672835
 20
3059.026110188666
 30
0.0
 10
4204.488095797514
 20
3057.714084938174
 30
0.0
 10
4202.639964485161
 20
3056.170852117918
 30
0.0
 10
4200.988836604996
 20
3054.418710924549
 30
0.0
 10
4199.557665482555
 20
3052.482512370854
 30
0.0
 10
4198.368798184538
 20
3050.389718800606
 30
0.0
 10
4197.431698851369
 20
3048.170464094338
 30
0.0
 10
4196.78747481173
 20
3045.854908455424
 30
0.0
 10
4196.448936479397
 20
3044.052611806892
 30
0.0
 10
4196.420032211795
 20
3043.029587905481
 30
0.0
 10
4196.413747460659
 20
3042.807148412624
 30
0.0
  0
SPLINE
  5
78
330
1F
100
AcDbEntity
  8
0
  6
Continuous
 62
     7
370
    25
100
AcDbSpline
210
0.0
220
0.0
230
1.0
 70
     8
 71
     3
 72
    22
 73
    18
 74
     0
 42
0.00000001
 43
0.0000000001
 40
0.0
 40
0.0
 40
0.0
 40
0.0
 40
0.0212956253701527
 40
0.0959064058599009
 40
0.1705171854173581
 40
0.2451280042059062
 40
0.3197389001583763
 40
0.3943499068100866
 40
0.4689610513964933
 40
0.5435723533134939
 40
0.6181838230267431
 40
0.6927954614898183
 40
0.7674072601016717
 40
0.8420192012032082
 40
0.9166312590828288
 40
0.9873311677114653
 40
1.0
 40
1.0
 40
1.0
 40
1.0
 10
4236.554066351641
 20
3042.807148412624
 30
0.0
 10
4236.547456602951
 20
3043.035651112398
 30
0.0
 10
4236.517689116467
 20
3044.064729727549
 30
0.0
 10
4236.17701402105
 20
3045.872754551337
 30
0.0
 10
4235.530474918005
 20
3048.187700799371
 30
0.0
 10
4234.591430965148
 20
3050.40609939458
 30
0.0
 10
4233.400662887617
 20
3052.497804074277
 30
0.0
 10
4231.967756619396
 20
3054.432691662196
 30
0.0
 10
4230.31505953067
 20
3056.183344688431
 30
0.0
 10
4228.465547217278
 20
3057.724841593428
 30
0.0
 10
4226.445666207584
 20
3059.0352554036
 30
0.0
 10
4224.284096042573
 20
3060.095988100231
 30
0.0
 10
4222.011619812575
 20
3060.891800791001
 30
0.0
 10
4219.660435144795
 20
3061.411945487643
 30
0.0
 10
4217.306301028528
 20
3061.642786119616
 30
0.0
 10
4215.606704373778
 20
3061.615766545898
 30
0.0
 10
4214.715475388847
 20
3061.5369625805
 30
0.0
 10
4214.580042966377
 20
3061.524987417983
 30
0.0
  0
SPLINE
  5
79
330
1F
100
AcDbEntity
  8
0
  6
Continuous
 62
     7
370
    25
100
AcDbSpline
210
0.0
220
0.0
230
1.0
 70
     8
 71
     3
 72
    20
 73
    16
 74
     0
 42
0.00000001
 43
0.0000000001
 40
0.0
 40
0.0
 40
0.0
 40
0.0
 40
0.0435537102164301
 40
0.1245168795990105
 40
0.2055116314785049
 40
0.2865063523684348
 40
0.3675009754379363
 40
0.448495473690351
 40
0.5294898267080149
 40
0.6104840216937092
 40
0.6914780541525594
 40
0.7724719281385147
 40
0.8534656560502964
 40
0.9344592579856536
 40
0.9999999999999998
 40
0.9999999999999998
 40
0.9999999999999998
 40
0.9999999999999998
 10
4214.430222781417
 20
3063.18208574572
 30
0.0
 10
4213.985771540998
 20
3063.131537285896
 30
0.0
 10
4212.715117874163
 20
3062.987022927541
 30
0.0
 10
4210.649040191015
 20
3062.528537551883
 30
0.0
 10
4208.282626115841
 20
3061.724749446898
 30
0.0
 10
4206.024260733896
 20
3060.651019223609
 30
0.0
 10
4203.903749290915
 20
3059.326585978106
 30
0.0
 10
4201.949111872639
 20
3057.767579734384
 30
0.0
 10
4200.186154902825
 20
3055.994909749383
 30
0.0
 10
4198.637921716959
 20
3054.031866933691
 30
0.0
 10
4197.3255929072
 20
3051.904307701096
 30
0.0
 10
4196.263599865182
 20
3049.640470869091
 30
0.0
 10
4195.476659212146
 20
3047.269482677799
 30
0.0
 10
4194.969593530246
 20
3044.980746605773
 30
0.0
 10
4194.862238259659
 20
3043.478888036222
 30
0.0
 10
4194.814221228949
 20
3042.807148412624
 30
0.0
  0
SPLINE
  5
7A
330
1F
100
AcDbEntity
  8
0
  6
Continuous
 62
     7
370
    25
100
AcDbSpline
210
0.0
220
0.0
230
1.0
 70
     8
 71
     3
 72
    22
 73
    18
 74
     0
 42
0.00000001
 43
0.0000000001
 40
0.0
 40
0.0
 40
0.0
 40
0.0
 40
0.0601482096690125
 40
0.1316034187037918
 40
0.2030586438249066
 40
0.2745139174932763
 40
0.3459692696036289
 40
0.4174247259077156
 40
0.4888803066612279
 40
0.5603360255636007
 40
0.6317918890454651
 40
0.7032478959396468
 40
0.7747040375511223
 40
0.8461602981204876
 40
0.9176166556552226
 40
0.9853282890302576
 40
1.0
 40
1.0
 40
1.0
 40
1.0
 10
4238.157111364353
 20
3042.807148412624
 30
0.0
 10
4238.104865911513
 20
3043.505757791619
 30
0.0
 10
4237.990553611225
 20
3045.034305077071
 30
0.0
 10
4237.47051127071
 20
3047.347826541699
 30
0.0
 10
4236.674300099174
 20
3049.715797966975
 30
0.0
 10
4235.603991252469
 20
3051.975663108638
 30
0.0
 10
4234.283713259221
 20
3054.098300094901
 30
0.0
 10
4232.728188874761
 20
3056.055543344931
 30
0.0
 10
4230.958645793242
 20
3057.821635169131
 30
0.0
 10
4228.998220651867
 20
3059.373280990707
 30
0.0
 10
4226.872814081742
 20
3060.690013447381
 30
0.0
 10
4224.610425504823
 20
3061.754518610727
 30
0.0
 10
4222.240919292323
 20
3062.55258189456
 30
0.0
 10
4219.79541396121
 20
3063.074348835268
 30
0.0
 10
4217.350081963121
 20
3063.306319993595
 30
0.0
 10
4215.55550594316
 20
3063.280445527439
 30
0.0
 10
4214.600330657351
 20
3063.196954690813
 30
0.0
 10
4214.430222781417
 20
3063.18208574572
 30
0.0
  0
SPLINE
  5
7B
330
1F
100
AcDbEntity
  8
0
  6
Continuous
 62
     7
370
    25
100
AcDbSpline
210
0.0
220
0.0
230
1.0
 70
     8
 71
     3
 72
    21
 73
    17
 74
     0
 42
0.00000001
 43
0.0000000001
 40
0.0
 40
0.0
 40
0.0
 40
0.0
 40
0.0417659016542955
 40
0.1195233352382893
 40
0.1973090742674525
 40
0.2750947863770676
 40
0.3528804155577048
 40
0.4306659388432603
 40
0.5084513384696293
 40
0.5862366027200567
 40
0.6640217265062267
 40
0.7418067116255985
 40
0.8195915666807927
 40
0.8973763066635513
 40
0.9751609522225667
 40
1.0
 40
1.0
 40
1.0
 40
1.0
 10
4214.280402596457
 20
3064.839184073457
 30
0.0
 10
4213.820685446792
 20
3064.787210390065
 30
0.0
 10
4212.505092467407
 20
3064.638474992586
 30
0.0
 10
4210.364014827434
 20
3064.173152651659
 30
0.0
 10
4207.906400402011
 20
3063.360659272762
 30
0.0
 10
4205.554121878452
 20
3062.277187680535
 30
0.0
 10
4203.336092363447
 20
3060.941124282749
 30
0.0
 10
4201.279655424108
 20
3059.367554581215
 30
0.0
 10
4199.410024931665
 20
3057.576174106314
 30
0.0
 10
4197.750314715219
 20
3055.588895655088
 30
0.0
 10
4196.320419569555
 20
3053.430185104143
 30
0.0
 10
4195.139771358886
 20
3051.126490878022
 30
0.0
 10
4194.215932985602
 20
3048.706392988434
 30
0.0
 10
4193.586173979159
 20
3046.198625168369
 30
0.0
 10
4193.257858859172
 20
3044.218788473733
 30
0.0
 10
4193.236835860944
 20
3043.082238957641
 30
0.0
 10
4193.231747452601
 20
3042.807148412624
 30
0.0
  0
SPLINE
  5
7C
330
1F
100
AcDbEntity
  8
0
  6
Continuous
 62
     7
370
    25
100
AcDbSpline
210
0.0
220
0.0
230
1.0
 70
     8
 71
     3
 72
    23
 73
    19
 74
     0
 42
0.00000001
 43
0.0000000001
 40
0.0
 40
0.0
 40
0.0
 40
0.0
 40
0.0307331362701735
 40
0.0994005396567126
 40
0.1680679442250362
 40
0.2367353776017035
 40
0.3054028659964647
 40
0.3740704329082049
 40
0.4427380979720673
 40
0.511405875999081
 40
0.5800737762549654
 40
0.6487418020125838
 40
0.7174099503987012
 40
0.7860782125411934
 40
0.8547465740082417
 40
0.9234150155171294
 40
0.9884809288226353
 40
1.0
 40
1.0
 40
1.0
 40
1.0
 10
4239.732248816007
 20
3042.807148412624
 30
0.0
 10
4239.720824624494
 20
3043.192658140553
 30
0.0
 10
4239.683875229172
 20
3044.439516731951
 30
0.0
 10
4239.317284424663
 20
3046.524403846839
 30
0.0
 10
4238.648710074007
 20
3049.022701054193
 30
0.0
 10
4237.691338105863
 20
3051.429454643005
 30
0.0
 10
4236.477771933713
 20
3053.716076191964
 30
0.0
 10
4235.017340083369
 20
3055.854203513012
 30
0.0
 10
4233.329484376898
 20
3057.817634174717
 30
0.0
 10
4231.43454426603
 20
3059.58222154283
 30
0.0
 10
4229.355911428418
 20
3061.126289936411
 30
0.0
 10
4227.119101393103
 20
3062.4308529838
 30
0.0
 10
4224.75159965602
 20
3063.479920450248
 30
0.0
 10
4222.28252669445
 20
3064.260448766264
 30
0.0
 10
4219.74210981346
 20
3064.763411902823
 30
0.0
 10
4217.207111170847
 20
3064.976719560443
 30
0.0
 10
4215.38130408479
 20
3064.937108788838
 30
0.0
 10
4214.424338792225
 20
3064.851987136358
 30
0.0
 10
4214.280402596457
 20
3064.839184073457
 30
0.0
  0
SPLINE
  5
7D
330
1F
100
AcDbEntity
  8
0
  6
Continuous
 62
     7
370
    25
100
AcDbSpline
210
0.0
220
0.0
230
1.0
 70
     8
 71
     3
 72
    21
 73
    17
 74
     0
 42
0.00000001
 43
0.0000000001
 40
0.0
 40
0.0
 40
0.0
 40
0.0
 40
0.040180834750797
 40
0.1150859485556624
 40
0.1900166216322809
 40
0.2649472711109387
 40
0.3398778494961323
 40
0.4148083370578927
 40
0.4897387182437124
 40
0.5646689823720963
 40
0.6395991241280525
 40
0.7145291438133185
 40
0.7894590473386708
 40
0.8643888459575725
 40
0.9393185557524626
 40
1.0
 40
1.0
 40
1.0
 40
1.0
 10
4214.130582411498
 20
3066.496282401194
 30
0.0
 10
4213.65608613758
 20
3066.442926536983
 30
0.0
 10
4212.297033890191
 20
3066.290104668503
 30
0.0
 10
4210.083470466337
 20
3065.818147007723
 30
0.0
 10
4207.537851227149
 20
3064.997257511426
 30
0.0
 10
4205.095111179907
 20
3063.904477824154
 30
0.0
 10
4202.78335176939
 20
3062.557444819324
 30
0.0
 10
4200.629255731615
 20
3060.970326223636
 30
0.0
 10
4198.657572613098
 20
3059.161741623856
 30
0.0
 10
4196.891049722482
 20
3057.152402748859
 30
0.0
 10
4195.349805108645
 20
3054.965466323041
 30
0.0
 10
4194.052341709541
 20
3052.6260482128
 30
0.0
 10
4193.010717283432
 20
3050.161220564175
 30
0.0
 10
4192.247628850824
 20
3047.598774905212
 30
0.0
 10
4191.764567187852
 20
3045.136921625307
 30
0.0
 10
4191.673143803586
 20
3043.527369167489
 30
0.0
 10
4191.63223490465
 20
3042.807148412624
 30
0.0
  0
SPLINE
  5
7E
330
1F
100
AcDbEntity
  8
0
  6
Continuous
 62
     7
370
    25
100
AcDbSpline
210
0.0
220
0.0
230
1.0
 70
     8
 71
     3
 72
    23
 73
    19
 74
     0
 42
0.00000001
 43
0.0000000001
 40
0.0
 40
0.0
 40
0.0
 40
0.0
 40
0.0065257735531928
 40
0.0727051238276772
 40
0.138884465857196
 40
0.2050638231607223
 40
0.2712432185568108
 40
0.3374226731050033
 40
0.4036022051371046
 40
0.4697818294160415
 40
0.5359615564608575
 40
0.6021413920683765
 40
0.6683213370526779
 40
0.7345013872133536
 40
0.8006815335329696
 40
0.866861762593831
 40
0.9330420571943857
 40
1.0
 40
1.0
 40
1.0
 40
1.0
 10
4241.34539653175
 20
3042.807148412624
 30
0.0
 10
4241.345707736584
 20
3042.89492227599
 30
0.0
 10
4241.34917494026
 20
3043.872830803288
 30
0.0
 10
4241.085672969648
 20
3045.732288241797
 30
0.0
 10
4240.53728120104
 20
3048.346006289068
 30
0.0
 10
4239.682297281154
 20
3050.882956605819
 30
0.0
 10
4238.568390904934
 20
3053.314561006747
 30
0.0
 10
4237.198241452744
 20
3055.612677914736
 30
0.0
 10
4235.590329727609
 20
3057.750910176759
 30
0.0
 10
4233.762428354796
 20
3059.70464119031
 30
0.0
 10
4231.735762757301
 20
3061.451404208083
 30
0.0
 10
4229.533602363634
 20
3062.971063955274
 30
0.0
 10
4227.181286059356
 20
3064.24626967465
 30
0.0
 10
4224.705922843085
 20
3065.261846192735
 30
0.0
 10
4222.135818262109
 20
3066.00798159303
 30
0.0
 10
4219.501203418959
 20
3066.469096644478
 30
0.0
 10
4216.819467940997
 20
3066.666756393837
 30
0.0
 10
4215.030360924534
 20
3066.553327907195
 30
0.0
 10
4214.130582411498
 20
3066.496282401194
 30
0.0
  0
SPLINE
  5
7F
330
1F
100
AcDbEntity
  8
0
  6
Continuous
 62
     7
370
    25
100
AcDbSpline
210
0.0
220
0.0
230
1.0
 70
     8
 71
     3
 72
    22
 73
    18
 74
     0
 42
0.00000001
 43
0.0000000001
 40
0.0
 40
0.0
 40
0.0
 40
0.0
 40
0.038761074431394
 40
0.1111031708355937
 40
0.1834684968428568
 40
0.2558338019987073
 40
0.3281990456130707
 40
0.4005642105888425
 40
0.4729292832293352
 40
0.545294253812907
 40
0.617659117016554
 40
0.6900238721506366
 40
0.7623885231937285
 40
0.8347530786252168
 40
0.9071175510621404
 40
0.9794819567154833
 40
1.0
 40
1.0
 40
1.0
 40
1.0
 10
4213.980762226539
 20
3068.153380728931
 30
0.0
 10
4213.491930129992
 20
3068.098682188038
 30
0.0
 10
4212.090761645136
 20
3067.941896510074
 30
0.0
 10
4209.806989448225
 20
3067.463489478733
 30
0.0
 10
4207.176246690958
 20
3066.634482225848
 30
0.0
 10
4204.646145720182
 20
3065.53277523791
 30
0.0
 10
4202.244039885665
 20
3064.175341365948
 30
0.0
 10
4199.995991896923
 20
3062.575534403936
 30
0.0
 10
4197.92630894089
 20
3060.751016962948
 30
0.0
 10
4196.057347556205
 20
3058.721431617546
 30
0.0
 10
4194.409465608634
 20
3056.508755913676
 30
0.0
 10
4192.999959160764
 20
3054.136932261275
 30
0.0
 10
4191.846053209085
 20
3051.631570608223
 30
0.0
 10
4190.952847052368
 20
3049.019956806381
 30
0.0
 10
4190.357554615301
 20
3046.329653941036
 30
0.0
 10
4190.057828110151
 20
3044.246061063549
 30
0.0
 10
4190.051231274468
 20
3043.067497124307
 30
0.0
 10
4190.049774011426
 20
3042.807148412624
 30
0.0
  0
SPLINE
  5
80
330
1F
100
AcDbEntity
  8
0
  6
Continuous
 62
     7
370
    25
100
AcDbSpline
210
0.0
220
0.0
230
1.0
 70
     8
 71
     3
 72
    23
 73
    19
 74
     0
 42
0.00000001
 43
0.0000000001
 40
0.0
 40
0.0
 40
0.0
 40
0.0
 40
0.0504722309328289
 40
0.1144178356387079
 40
0.1783634464087699
 40
0.2423090830758462
 40
0.306254764349458
 40
0.3702005070038656
 40
0.4341463251534354
 40
0.4980922296446827
 40
0.5620382275910458
 40
0.625984322069979
 40
0.689930511994742
 40
0.7538767921656393
 40
0.8178231534977451
 40
0.8817695834147373
 40
0.945716066391512
 40
0.9999999999999998
 40
0.9999999999999998
 40
0.9999999999999998
 40
0.9999999999999998
 10
4242.923801226662
 20
3042.807148412624
 30
0.0
 10
4242.888412329476
 20
3043.531349177243
 30
0.0
 10
4242.808187601014
 20
3045.173073399142
 30
0.0
 10
4242.343864768966
 20
3047.698829736896
 30
0.0
 10
4241.597615675832
 20
3050.353073688313
 30
0.0
 10
4240.570893562936
 20
3052.914332866047
 30
0.0
 10
4239.285976670843
 20
3055.355428846428
 30
0.0
 10
4237.753770789174
 20
3057.649814237963
 30
0.0
 10
4235.991652103971
 20
3059.772708517817
 30
0.0
 10
4234.018467055741
 20
3061.701135100669
 30
0.0
 10
4231.855616581255
 20
3063.414244966665
 30
0.0
 10
4229.526484645432
 20
3064.893472724034
 30
0.0
 10
4227.05625736274
 20
3066.122940197961
 30
0.0
 10
4224.471702537588
 20
3067.088886686645
 30
0.0
 10
4221.800600363518
 20
3067.782581243447
 30
0.0
 10
4219.072510122229
 20
3068.19010514779
 30
0.0
 10
4216.453379097712
 20
3068.323891336345
 30
0.0
 10
4214.758803994793
 20
3068.207034158237
 30
0.0
 10
4213.980762226539
 20
3068.153380728931
 30
0.0
  0
SPLINE
  5
81
330
1F
100
AcDbEntity
  8
0
  6
Continuous
 62
     7
370
    25
100
AcDbSpline
210
0.0
220
0.0
230
1.0
 70
     8
 71
     3
 72
    22
 73
    18
 74
     0
 42
0.00000001
 43
0.0000000001
 40
0.0
 40
0.0
 40
0.0
 40
0.0
 40
0.0374822275701741
 40
0.1075092652484906
 40
0.1775575373300767
 40
0.2476057908555582
 40
0.3176539906466609
 40
0.3877021217719187
 40
0.4577501721012879
 40
0.5277981327865695
 40
0.5978459986249066
 40
0.6678937682746819
 40
0.73794144431437
 40
0.8079890331412435
 40
0.8780365447135041
 40
0.9480839921458581
 40
1.0
 40
1.0
 40
1.0
 40
1.0
 10
4213.830942041578
 20
3069.810479056668
 30
0.0
 10
4213.328180007829
 20
3069.754474242859
 30
0.0
 10
4211.886121188295
 20
3069.593837141671
 30
0.0
 10
4209.534215148581
 20
3069.109152749458
 30
0.0
 10
4206.820964410511
 20
3068.272280094241
 30
0.0
 10
4204.206307033395
 20
3067.161983758887
 30
0.0
 10
4201.716901698739
 20
3065.79464414482
 30
0.0
 10
4199.378237511623
 20
3064.182887721467
 30
0.0
 10
4197.214167377772
 20
3062.343521649005
 30
0.0
 10
4195.246768149832
 20
3060.295225340032
 30
0.0
 10
4193.49618210835
 20
3058.058928427071
 30
0.0
 10
4191.980040681831
 20
3055.657459391801
 30
0.0
 10
4190.714700461977
 20
3053.115294680156
 30
0.0
 10
4189.70978315586
 20
3050.458517913221
 30
0.0
 10
4188.987833938771
 20
3047.713735202048
 30
0.0
 10
4188.551555809706
 20
3045.152703709813
 30
0.0
 10
4188.486906218498
 20
3043.507471872517
 30
0.0
 10
4188.459386920384
 20
3042.807148412624
 30
0.0
  0
SPLINE
  5
82
330
1F
100
AcDbEntity
  8
0
  6
Continuous
 62
     7
370
    25
100
AcDbSpline
210
0.0
220
0.0
230
1.0
 70
     8
 71
     3
 72
    24
 73
    20
 74
     0
 42
0.00000001
 43
0.0000000001
 40
0.0
 40
0.0
 40
0.0
 40
0.0
 40
0.032055618695957
 40
0.0939771992040645
 40
0.1558987795759111
 40
0.2178203770742947
 40
0.2797420082621875
 40
0.3416636883225944
 40
0.4035854304390039
 40
0.4655072452587972
 40
0.5274291404613633
 40
0.5893511204482866
 40
0.6512731861677067
 40
0.713195335079455
 40
0.7751175612617672
 40
0.837039855654705
 40
0.8989622064300011
 40
0.9608845994721411
 40
1.0
 40
1.0
 40
1.0
 40
1.0
 10
4244.500603246624
 20
3042.807148412624
 30
0.0
 10
4244.490744711123
 20
3043.296509087242
 30
0.0
 10
4244.461842521978
 20
3044.73116383646
 30
0.0
 10
4244.102319131756
 20
3047.091075650834
 30
0.0
 10
4243.446426847055
 20
3049.851704319189
 30
0.0
 10
4242.500767877571
 20
3052.530424238746
 30
0.0
 10
4241.293473903644
 20
3055.10052607212
 30
0.0
 10
4239.831915488638
 20
3057.535609253602
 30
0.0
 10
4238.132336679989
 20
3059.810865359926
 30
0.0
 10
4236.211728421375
 20
3061.903060400986
 30
0.0
 10
4234.089788630796
 20
3063.790841504904
 30
0.0
 10
4231.78814819774
 20
3065.454947442815
 30
0.0
 10
4229.330308794951
 20
3066.878365261484
 30
0.0
 10
4226.741341886993
 20
3068.046671190029
 30
0.0
 10
4224.047718991593
 20
3068.947548861682
 30
0.0
 10
4221.276758219269
 20
3069.573263919074
 30
0.0
 10
4218.457392565258
 20
3069.911976583668
 30
0.0
 10
4215.964816884226
 20
3069.972156891153
 30
0.0
 10
4214.426485865491
 20
3069.855601776082
 30
0.0
 10
4213.830942041578
 20
3069.810479056668
 30
0.0
  0
SPLINE
  5
83
330
1F
100
AcDbEntity
  8
0
  6
Continuous
 62
     7
370
    25
100
AcDbSpline
210
0.0
220
0.0
230
1.0
 70
     8
 71
     3
 72
    23
 73
    19
 74
     0
 42
0.00000001
 43
0.0000000001
 40
0.0
 40
0.0
 40
0.0
 40
0.0
 40
0.0363197771010533
 40
0.1042370619510437
 40
0.172173855345305
 40
0.2401106321222396
 40
0.308047361624286
 40
0.3759840307207896
 40
0.4439206286137053
 40
0.5118571472425978
 40
0.5797935815978698
 40
0.6477299299171461
 40
0.7156661937567136
 40
0.7836023779347315
 40
0.8515384903479306
 40
0.919474541668468
 40
0.9874105449324417
 40
1.0
 40
1.0
 40
1.0
 40
1.0
 10
4213.68112185662
 20
3071.467577384404
 30
0.0
 10
4213.164803308485
 20
3071.410299971564
 30
0.0
 10
4211.682979002714
 20
3071.245914897997
 30
0.0
 10
4209.264840174565
 20
3070.755112750017
 30
0.0
 10
4206.471469901284
 20
3069.910604847619
 30
0.0
 10
4203.774808012019
 20
3068.792021648922
 30
0.0
 10
4201.200867551881
 20
3067.415211492273
 30
0.0
 10
4198.774599402315
 20
3065.79214702915
 30
0.0
 10
4196.519418904443
 20
3063.938865381624
 30
0.0
 10
4194.457131666289
 20
3061.873176146122
 30
0.0
 10
4192.607615061378
 20
3059.615062577848
 30
0.0
 10
4190.988905646896
 20
3057.18633248123
 30
0.0
 10
4189.61601492296
 20
3054.610458250348
 30
0.0
 10
4188.504544857357
 20
3051.91230302059
 30
0.0
 10
4187.656505077538
 20
3049.118017862545
 30
0.0
 10
4187.112661308378
 20
3046.254286471675
 30
0.0
 10
4186.853367479778
 20
3044.138650528427
 30
0.0
 10
4186.863762739347
 20
3042.987172057037
 30
0.0
 10
4186.865387947771
 20
3042.807148412624
 30
0.0
  0
SPLINE
  5
84
330
1F
100
AcDbEntity
  8
0
  6
Continuous
 62
     7
370
    25
100
AcDbSpline
210
0.0
220
0.0
230
1.0
 70
     8
 71
     3
 72
    25
 73
    21
 74
     0
 42
0.00000001
 43
0.0000000001
 40
0.0
 40
0.0
 40
0.0
 40
0.0
 40
0.0168502264390694
 40
0.0769275895078224
 40
0.1370049483403735
 40
0.1970823180115566
 40
0.2571597131781617
 40
0.3172371475078722
 40
0.3773146331509242
 40
0.437392180271441
 40
0.497469796656544
 40
0.5575474874181676
 40
0.6176252547987584
 40
0.6777030980879419
 40
0.737781013652865
 40
0.7978589950806243
 40
0.8579370334269123
 40
0.9180151175610667
 40
0.9780932345942151
 40
1.0
 40
1.0
 40
1.0
 40
1.0
 10
4246.095610543437
 20
3042.807148412624
 30
0.0
 10
4246.0962400788
 20
3043.07965423382
 30
0.0
 10
4246.099114143322
 20
3044.32374528668
 30
0.0
 10
4245.816457619731
 20
3046.529182214525
 30
0.0
 10
4245.242782122874
 20
3049.387583907594
 30
0.0
 10
4244.369418801738
 20
3052.173829281987
 30
0.0
 10
4243.23250958478
 20
3054.861444705801
 30
0.0
 10
4241.83561477665
 20
3057.424346363094
 30
0.0
 10
4240.194218713615
 20
3059.837806146452
 30
0.0
 10
4238.323645740332
 20
3062.078499072527
 30
0.0
 10
4236.242109934386
 20
3064.124780463391
 30
0.0
 10
4233.969682669051
 20
3065.956879037087
 30
0.0
 10
4231.528327030689
 20
3067.557100068842
 30
0.0
 10
4228.941629033988
 20
3068.90996373966
 30
0.0
 10
4226.234568059597
 20
3070.002472993177
 30
0.0
 10
4223.433339126112
 20
3070.823798598238
 30
0.0
 10
4220.564847289197
 20
3071.367027655278
 30
0.0
 10
4217.657394342417
 20
3071.62309555904
 30
0.0
 10
4215.355401529404
 20
3071.60786231676
 30
0.0
 10
4214.034163249034
 20
3071.497158098224
 30
0.0
 10
4213.68112185662
 20
3071.467577384404
 30
0.0
  0
SPLINE
  5
85
330
1F
100
AcDbEntity
  8
0
  6
Continuous
 62
     7
370
    25
100
AcDbSpline
210
0.0
220
0.0
230
1.0
 70
     8
 71
     3
 72
    23
 73
    19
 74
     0
 42
0.00000001
 43
0.0000000001
 40
0.0
 40
0.0
 40
0.0
 40
0.0
 40
0.035260188989971
 40
0.1012501261245749
 40
0.167258068583891
 40
0.2332659960767233
 40
0.2992738816907445
 40
0.3652817138055237
 40
0.4312894827616619
 40
0.4972971812048252
 40
0.5633048043568923
 40
0.6293123501934793
 40
0.6953198195209515
 40
0.761327215949676
 40
0.8273345457641056
 40
0.8933418176941223
 40
0.959349042595789
 40
1.0
 40
1.0
 40
1.0
 40
1.0
 10
4213.53130167166
 20
3073.124675712141
 30
0.0
 10
4213.001771655441
 20
3073.066156958653
 30
0.0
 10
4211.48121880349
 20
3072.898119539084
 30
0.0
 10
4208.99859739099
 20
3072.401348169137
 30
0.0
 10
4206.127299973529
 20
3071.549416052944
 30
0.0
 10
4203.35096858172
 20
3070.422818717152
 30
0.0
 10
4200.69501502135
 20
3069.036923883398
 30
0.0
 10
4198.183881144538
 20
3067.403113245343
 30
0.0
 10
4195.840572686906
 20
3065.536726691857
 30
0.0
 10
4193.68659179671
 20
3063.454785518029
 30
0.0
 10
4191.741669400644
 20
3061.17640962201
 30
0.0
 10
4190.023722627342
 20
3058.722484966015
 30
0.0
 10
4188.548207424569
 20
3056.115527307031
 30
0.0
 10
4187.329770748482
 20
3053.37941161005
 30
0.0
 10
4186.375423674933
 20
3050.53935403373
 30
0.0
 10
4185.709453528356
 20
3047.620940872566
 30
0.0
 10
4185.334980343943
 20
3045.032734807282
 30
0.0
 10
4185.302456349986
 20
3043.421314091051
 30
0.0
 10
4185.290060381254
 20
3042.807148412624
 30
0.0
  0
SPLINE
  5
86
330
1F
100
AcDbEntity
  8
0
  6
Continuous
 62
     7
370
    25
100
AcDbSpline
210
0.0
220
0.0
230
1.0
 70
     8
 71
     3
 72
    25
 73
    21
 74
     0
 42
0.00000001
 43
0.0000000001
 40
0.0
 40
0.0
 40
0.0
 40
0.0
 40
0.0043619466881082
 40
0.0627511598017838
 40
0.1211403667666826
 40
0.1795295800855753
 40
0.2379188127474096
 40
0.2963080770289279
 40
0.3546973840433216
 40
0.4130867433329356
 40
0.4714761625204661
 40
0.5298656470313324
 40
0.5882551998972147
 40
0.6466448216476107
 40
0.7050345102930416
 40
0.7634242614001358
 40
0.8218140682555045
 40
0.8802039221122015
 40
0.9385938125096123
 40
1.0
 40
1.0
 40
1.0
 40
1.0
 10
4247.702238920425
 20
3042.807148412624
 30
0.0
 10
4247.703655108059
 20
3042.881614642713
 30
0.0
 10
4247.724028446582
 20
3043.952889153443
 30
0.0
 10
4247.495418049134
 20
3046.017848633472
 30
0.0
 10
4246.996628047851
 20
3048.967030300128
 30
0.0
 10
4246.186882358947
 20
3051.85268994397
 30
0.0
 10
4245.113078280866
 20
3054.648296472809
 30
0.0
 10
4243.7744872219
 20
3057.328230109038
 30
0.0
 10
4242.186218972067
 20
3059.867909023582
 30
0.0
 10
4240.362079761574
 20
3062.244043471183
 30
0.0
 10
4238.319001620731
 20
3064.434842708126
 30
0.0
 10
4236.075666729315
 20
3066.420212663418
 30
0.0
 10
4233.652661767397
 20
3068.181955464866
 30
0.0
 10
4231.072206963859
 20
3069.703877472763
 30
0.0
 10
4228.357955459539
 20
3070.972157990222
 30
0.0
 10
4225.534846169967
 20
3071.974654143561
 30
0.0
 10
4222.628592967385
 20
3072.704079649462
 30
0.0
 10
4219.666507628954
 20
3073.146624039725
 30
0.0
 10
4216.621755920228
 20
3073.327870626262
 30
0.0
 10
4214.578601012107
 20
3073.193534812592
 30
0.0
 10
4213.53130167166
 20
3073.124675712141
 30
0.0
  0
SPLINE
  5
87
330
1F
100
AcDbEntity
  8
0
  6
Continuous
 62
     7
370
    25
100
AcDbSpline
210
0.0
220
0.0
230
1.0
 70
     8
 71
     3
 72
    25
 73
    21
 74
     0
 42
0.00000001
 43
0.0000000001
 40
0.0
 40
0.0
 40
0.0
 40
0.0
 40
0.0320072888000316
 40
0.0911068923670219
 40
0.1502194308019606
 40
0.2093319392984633
 40
0.2684443928836809
 40
0.3275567762419072
 40
0.386669076140282
 40
0.4457812818175427
 40
0.5048933853052642
 40
0.5640053816668703
 40
0.6231172691470685
 40
0.682229049226902
 40
0.7413407265824819
 40
0.8004523089482827
 40
0.8595638068887952
 40
0.91867523348516
 40
0.977786603946043
 40
1.0
 40
1.0
 40
1.0
 40
1.0
 10
4212.844816451457
 20
3080.494488724526
 30
0.0
 10
4212.248856768474
 20
3080.429444374775
 30
0.0
 10
4210.552492073802
 20
3080.244299403299
 30
0.0
 10
4207.784256236328
 20
3079.717801756205
 30
0.0
 10
4204.580266916683
 20
3078.831719274521
 30
0.0
 10
4201.464883230121
 20
3077.66887403255
 30
0.0
 10
4198.461188065564
 20
3076.242983235563
 30
0.0
 10
4195.591621864474
 20
3074.56331767277
 30
0.0
 10
4192.8775133247
 20
3072.642735128541
 30
0.0
 10
4190.339065387458
 20
3070.4954309914
 30
0.0
 10
4187.99516265875
 20
3068.13740971697
 30
0.0
 10
4185.863255223218
 20
3065.586210921529
 30
0.0
 10
4183.959173662379
 20
3062.860820808626
 30
0.0
 10
4182.297207483462
 20
3059.981517708885
 30
0.0
 10
4180.889269110736
 20
3056.969731752158
 30
0.0
 10
4179.74752787301
 20
3053.847856131178
 30
0.0
 10
4178.874158827762
 20
3050.639186845151
 30
0.0
 10
4178.299246595363
 20
3047.367353032933
 30
0.0
 10
4178.013990221312
 20
3044.746276590331
 30
0.0
 10
4178.021016417697
 20
3043.223174939869
 30
0.0
 10
4178.022935583158
 20
3042.807148412624
 30
0.0
  0
SPLINE
  5
88
330
1F
100
AcDbEntity
  8
0
  6
Continuous
 62
     7
370
    25
100
AcDbSpline
210
0.0
220
0.0
230
1.0
 70
     8
 71
     3
 72
    27
 73
    23
 74
     0
 42
0.00000001
 43
0.0000000001
 40
0.0
 40
0.0
 40
0.0
 40
0.0
 40
0.0437275616349602
 40
0.0960523872172508
 40
0.1483772150443538
 40
0.2007020617700005
 40
0.253026943483826
 40
0.305351875229909
 40
0.3576768705586714
 40
0.4100019411240287
 40
0.4623270963377686
 40
0.51465234309137
 40
0.5669776855533346
 40
0.6193031250478313
 40
0.6716286600179515
 40
0.7239542860743681
 40
0.7762799961276653
 40
0.8286057806001833
 40
0.8809316277109305
 40
0.9332575238250814
 40
0.9855834538576891
 40
1.0
 40
1.0
 40
1.0
 40
1.0
 10
4254.959297028038
 20
3042.807148412624
 30
0.0
 10
4254.932758222905
 20
3043.732181085772
 30
0.0
 10
4254.874462825409
 20
3045.764116853233
 30
0.0
 10
4254.439487153695
 20
3048.878674393126
 30
0.0
 10
4253.72682201091
 20
3052.124527731733
 30
0.0
 10
4252.72901607827
 20
3055.296166975502
 30
0.0
 10
4251.463664713664
 20
3058.3702323574
 30
0.0
 10
4249.937457905898
 20
3061.323786245857
 30
0.0
 10
4248.162481981102
 20
3064.134869080414
 30
0.0
 10
4246.151748327769
 20
3066.782559484955
 30
0.0
 10
4243.920270592659
 20
3069.247157612043
 30
0.0
 10
4241.48463845835
 20
3071.510324163883
 30
0.0
 10
4238.8629784492
 20
3073.555219326698
 30
0.0
 10
4236.074796823571
 20
3075.366625697981
 30
0.0
 10
4233.140839360543
 20
3076.931068571149
 30
0.0
 10
4230.082939744718
 20
3078.236890451129
 30
0.0
 10
4226.92384137975
 20
3079.274433887758
 30
0.0
 10
4223.687088471767
 20
3080.035754921544
 30
0.0
 10
4220.396625416873
 20
3080.516020003789
 30
0.0
 10
4217.077460057612
 20
3080.708549393484
 30
0.0
 10
4214.555338970489
 20
3080.6440387428
 30
0.0
 10
4213.148662236176
 20
3080.521053789967
 30
0.0
 10
4212.844816451457
 20
3080.494488724526
 30
0.0
  0
ARC
  5
89
330
1F
100
AcDbEntity
  8
0
  6
Continuous
 62
     7
370
    25
100
AcDbCircle
 10
4216.484144717802
 20
3039.41746528226
 30
0.0
 40
8.000000000000031
100
AcDbArc
 50
25.06906265275377
 51
154.9309373472462
  0
LINE
  5
8A
330
1F
100
AcDbEntity
  8
0
  6
Continuous
 62
     7
370
    25
100
AcDbLine
 10
3616.484144717803
 20
2994.507148412623
 30
0.0
 11
4816.484144717803
 21
2994.507148412623
 31
0.0
  0
LINE
  5
8B
330
1F
100
AcDbEntity
  8
0
  6
Continuous
 62
     7
370
    25
100
AcDbLine
 10
4816.484144717803
 20
3042.807148412624
 30
0.0
 11
3616.484144717803
 21
3042.807148412624
 31
0.0
  0
LINE
  5
8C
330
1F
100
AcDbEntity
  8
0
  6
Continuous
 62
     7
370
    25
100
AcDbLine
 10
4792.334144717802
 20
3228.039982021992
 30
0.0
 11
4792.334144717802
 21
3042.807148412624
 31
0.0
  0
LINE
  5
8D
330
1F
100
AcDbEntity
  8
0
  6
Continuous
 62
     7
370
    25
100
AcDbLine
 10
4840.634144717803
 20
3018.657148412624
 30
0.0
 11
4840.634144717803
 21
3228.039982021992
 31
0.0
  0
LINE
  5
8E
330
1F
100
AcDbEntity
  8
0
  6
Continuous
 62
     7
370
    25
100
AcDbLine
 10
3640.634144717803
 20
2809.274314803255
 30
0.0
 11
3640.634144717803
 21
2994.507148412623
 31
0.0
  0
LINE
  5
8F
330
1F
100
AcDbEntity
  8
0
  6
Continuous
 62
     7
370
    25
100
AcDbLine
 10
3592.334144717803
 20
3018.657148412624
 30
0.0
 11
3592.334144717803
 21
2810.43400445184
 31
0.0
  0
LINE
  5
90
330
1F
100
AcDbEntity
  8
0
  6
Continuous
 62
     7
370
    25
100
AcDbLine
 10
3592.334144717803
 20
2811.774314803255
 30
0.0
 11
3587.334144717803
 21
2811.774314803255
 31
0.0
  0
LINE
  5
91
330
1F
100
AcDbEntity
  8
0
  6
Continuous
 62
     7
370
    25
100
AcDbLine
 10
3587.334144717803
 20
2806.774314803255
 30
0.0
 11
3592.334144717803
 21
2806.774314803255
 31
0.0
  0
LINE
  5
92
330
1F
100
AcDbEntity
  8
0
  6
Continuous
 62
     7
370
    25
100
AcDbLine
 10
2092.334144717802
 20
3767.993953547197
 30
0.0
 11
2092.334144717802
 21
2269.32034327805
 31
0.0
  0
ARC
  5
93
330
1F
100
AcDbEntity
  8
0
  6
Continuous
 62
     7
370
    25
100
AcDbCircle
 10
3592.334144717803
 20
3767.993953547208
 30
0.0
 40
1500.0
100
AcDbArc
 50
89.9999999999996
 51
180.0000000000012
  0
ARC
  5
94
330
1F
100
AcDbEntity
  8
0
  6
Continuous
 62
     7
370
    25
100
AcDbCircle
 10
4840.634144717803
 20
3767.993953547208
 30
0.0
 40
1500.0
100
AcDbArc
 50
0.0000000000004071
 51
90.00000000000042
  0
LINE
  5
95
330
1F
100
AcDbEntity
  8
0
  6
Continuous
 62
     7
370
    25
100
AcDbLine
 10
6340.634144717803
 20
2269.32034327805
 30
0.0
 11
6340.634144717803
 21
3767.993953547197
 31
0.0
  0
ARC
  5
96
330
1F
100
AcDbEntity
  8
0
  6
Continuous
 62
     7
370
    25
100
AcDbCircle
 10
4840.634144717803
 20
2269.320343278039
 30
0.0
 40
1500.0
100
AcDbArc
 50
270.0000000000004
 51
0.0000000000004169
  0
ARC
  5
97
330
1F
100
AcDbEntity
  8
0
  6
Continuous
 62
     7
370
    25
100
AcDbCircle
 10
3592.334144717802
 20
2269.320343278039
 30
0.0
 40
1500.0
100
AcDbArc
 50
179.9999999999996
 51
270.0000000000012
  0
LINE
  5
98
330
1F
100
AcDbEntity
  8
0
  6
Continuous
 62
     7
370
    25
100
AcDbLine
 10
4840.634144717792
 20
5267.993953547208
 30
0.0
 11
3592.334144717813
 21
5267.993953547208
 31
0.0
  0
LINE
  5
99
330
1F
100
AcDbEntity
  8
0
  6
Continuous
 62
     7
370
    25
100
AcDbLine
 10
3592.334144717813
 20
769.3203432780393
 30
0.0
 11
4840.634144717792
 21
769.3203432780393
 31
0.0
  0
ARC
  5
9A
330
1F
100
AcDbEntity
  8
0
  6
Continuous
 62
     7
370
    25
100
AcDbCircle
 10
4816.484144717803
 20
3218.657148412623
 30
0.0
 40
55.00000000000046
100
AcDbArc
 50
296.0458919410082
 51
243.9541080589944
  0
ARC
  5
9B
330
1F
100
AcDbEntity
  8
0
  6
Continuous
 62
     7
370
    25
100
AcDbCircle
 10
3616.484144717803
 20
2818.657148412624
 30
0.0
 40
55.0
100
AcDbArc
 50
270.0000000000008
 51
63.95410805899289
  0
ARC
  5
9C
330
1F
100
AcDbEntity
  8
0
  6
Continuous
 62
     7
370
    25
100
AcDbCircle
 10
3616.484144717803
 20
2818.657148412624
 30
0.0
 40
55.0
100
AcDbArc
 50
116.0458919410067
 51
270.0000000000008
  0
ARC
  5
9D
330
1F
100
AcDbEntity
  8
0
  6
Continuous
 62
     7
370
    25
100
AcDbCircle
 10
4328.643131700738
 20
2224.392084432722
 30
0.0
 40
337.9999999999997
100
AcDbArc
 50
102.2368926826378
 51
137.7631073173622
  0
ARC
  5
9E
330
1F
100
AcDbEntity
  8
0
  6
Continuous
 62
     7
370
    25
100
AcDbCircle
 10
4267.38839405309
 20
2330.488402242752
 30
0.0
 40
48.99999999999974
100
AcDbArc
 50
257.7631073173623
 51
342.236892682639
  0
ARC
  5
9F
330
1F
100
AcDbEntity
  8
0
  6
Continuous
 62
     7
370
    25
100
AcDbCircle
 10
4328.643131700739
 20
2612.922212392525
 30
0.0
 40
338.0000000000003
100
AcDbArc
 50
222.2368926826386
 51
257.763107317363
  0
ARC
  5
A0
330
1F
100
AcDbEntity
  8
0
  6
Continuous
 62
     7
370
    25
100
AcDbCircle
 10
4114.67564604723
 20
2418.657148412624
 30
0.0
 40
49.00000000000022
100
AcDbArc
 50
137.7631073173623
 51
222.2368926826385
  0
ARC
  5
A1
330
1F
100
AcDbEntity
  8
0
  6
Continuous
 62
     7
370
    25
100
AcDbCircle
 10
4267.38839405309
 20
2506.825894582494
 30
0.0
 40
49.00000000000019
100
AcDbArc
 50
17.76310731736227
 51
102.2368926826384
  0
ARC
  5
A2
330
1F
100
AcDbEntity
  8
0
  6
Continuous
 62
     7
370
    25
100
AcDbCircle
 10
3992.166170751931
 20
2418.657148412624
 30
0.0
 40
338.0000000000001
100
AcDbArc
 50
342.2368926826385
 51
17.76310731736213
  0
ARC
  5
A3
330
1F
100
AcDbEntity
  8
0
  6
Continuous
 62
     7
370
    25
100
AcDbCircle
 10
4267.38839405309
 20
3706.825894582494
 30
0.0
 40
49.00000000000063
100
AcDbArc
 50
17.76310731736278
 51
102.2368926826382
  0
ARC
  5
A4
330
1F
100
AcDbEntity
  8
0
  6
Continuous
 62
     7
370
    25
100
AcDbCircle
 10
3992.166170751931
 20
3618.657148412623
 30
0.0
 40
338.0000000000005
100
AcDbArc
 50
342.2368926826386
 51
17.76310731736218
  0
ARC
  5
A5
330
1F
100
AcDbEntity
  8
0
  6
Continuous
 62
     7
370
    25
100
AcDbCircle
 10
4267.388394053088
 20
3530.488402242752
 30
0.0
 40
48.99999999999972
100
AcDbArc
 50
257.7631073173634
 51
342.236892682639
  0
ARC
  5
A6
330
1F
100
AcDbEntity
  8
0
  6
Continuous
 62
     7
370
    25
100
AcDbCircle
 10
4328.643131700738
 20
3812.922212392525
 30
0.0
 40
337.9999999999993
100
AcDbArc
 50
222.2368926826385
 51
257.763107317363
  0
ARC
  5
A7
330
1F
100
AcDbEntity
  8
0
  6
Continuous
 62
     7
370
    25
100
AcDbCircle
 10
4114.675646047229
 20
3618.657148412623
 30
0.0
 40
48.99999999999988
100
AcDbArc
 50
137.7631073173616
 51
222.2368926826388
  0
ARC
  5
A8
330
1F
100
AcDbEntity
  8
0
  6
Continuous
 62
     7
370
    25
100
AcDbCircle
 10
4328.643131700738
 20
3424.392084432721
 30
0.0
 40
338.0000000000005
100
AcDbArc
 50
102.2368926826377
 51
137.763107317362
  0
ARC
  5
A9
330
1F
100
AcDbEntity
  8
0
  6
Continuous
 62
     7
370
    25
100
AcDbCircle
 10
4268.062773210796
 20
3529.32034327804
 30
0.0
 40
55.00000000000073
100
AcDbArc
 50
257.9422323736614
 51
342.0577676263395
  0
ARC
  5
AA
330
1F
100
AcDbEntity
  8
0
  6
Continuous
 62
     7
370
    25
100
AcDbCircle
 10
4328.643131700738
 20
3812.922212392525
 30
0.0
 40
344.9999999999997
100
AcDbArc
 50
222.0577676263403
 51
257.9422323736614
  0
ARC
  5
AB
330
1F
100
AcDbEntity
  8
0
  6
Continuous
 62
     7
370
    25
100
AcDbCircle
 10
4113.326887731815
 20
3618.657148412623
 30
0.0
 40
55.00000000000007
100
AcDbArc
 50
137.9422323736606
 51
222.0577676263402
  0
ARC
  5
AC
330
1F
100
AcDbEntity
  8
0
  6
Continuous
 62
     7
370
    25
100
AcDbCircle
 10
4328.643131700738
 20
3424.392084432721
 30
0.0
 40
345.0000000000006
100
AcDbArc
 50
102.0577676263394
 51
137.9422323736603
  0
ARC
  5
AD
330
1F
100
AcDbEntity
  8
0
  6
Continuous
 62
     7
370
    25
100
AcDbCircle
 10
4268.062773210796
 20
3707.993953547207
 30
0.0
 40
55.00000000000073
100
AcDbArc
 50
17.94223237366091
 51
102.0577676263394
  0
ARC
  5
AE
330
1F
100
AcDbEntity
  8
0
  6
Continuous
 62
     7
370
    25
100
AcDbCircle
 10
3992.166170751931
 20
3618.657148412623
 30
0.0
 40
345.0000000000002
100
AcDbArc
 50
342.0577676263402
 51
17.94223237366047
  0
ARC
  5
AF
330
1F
100
AcDbEntity
  8
0
  6
Continuous
 62
     7
370
    25
100
AcDbCircle
 10
4267.388394053088
 20
3530.488402242752
 30
0.0
 40
50.00000000000063
100
AcDbArc
 50
257.7631073173628
 51
342.2368926826392
  0
ARC
  5
B0
330
1F
100
AcDbEntity
  8
0
  6
Continuous
 62
     7
370
    25
100
AcDbCircle
 10
3992.166170751931
 20
3618.657148412623
 30
0.0
 40
339.0000000000005
100
AcDbArc
 50
342.2368926826386
 51
17.76310731736214
  0
ARC
  5
B1
330
1F
100
AcDbEntity
  8
0
  6
Continuous
 62
     7
370
    25
100
AcDbCircle
 10
4267.38839405309
 20
3706.825894582494
 30
0.0
 40
50.00000000000056
100
AcDbArc
 50
17.76310731736249
 51
102.2368926826379
  0
ARC
  5
B2
330
1F
100
AcDbEntity
  8
0
  6
Continuous
 62
     7
370
    25
100
AcDbCircle
 10
4328.643131700738
 20
3424.392084432721
 30
0.0
 40
339.0000000000005
100
AcDbArc
 50
102.2368926826377
 51
137.763107317362
  0
ARC
  5
B3
330
1F
100
AcDbEntity
  8
0
  6
Continuous
 62
     7
370
    25
100
AcDbCircle
 10
4114.675646047229
 20
3618.657148412623
 30
0.0
 40
49.99999999999992
100
AcDbArc
 50
137.7631073173616
 51
222.2368926826387
  0
ARC
  5
B4
330
1F
100
AcDbEntity
  8
0
  6
Continuous
 62
     7
370
    25
100
AcDbCircle
 10
4328.643131700738
 20
3812.922212392525
 30
0.0
 40
338.9999999999998
100
AcDbArc
 50
222.2368926826385
 51
257.763107317363
  0
LINE
  5
B5
330
1F
100
AcDbEntity
  8
0
  6
Continuous
 62
     7
370
    25
100
AcDbLine
 10
4320.387990918511
 20
3512.377156097342
 30
0.0
 11
4325.144828891939
 21
3510.836866353642
 31
0.0
  0
ARC
  5
B6
330
1F
100
AcDbEntity
  8
0
  6
Continuous
 62
     7
370
    25
100
AcDbCircle
 10
4268.062773210796
 20
3529.32034327804
 30
0.0
 40
60.00000000000063
100
AcDbArc
 50
257.942232373661
 51
342.0577676263398
  0
LINE
  5
B7
330
1F
100
AcDbEntity
  8
0
  6
Continuous
 62
     7
370
    25
100
AcDbLine
 10
4256.573394876496
 20
3475.533781894256
 30
0.0
 11
4255.528905937015
 21
3470.644094495732
 31
0.0
  0
ARC
  5
B8
330
1F
100
AcDbEntity
  8
0
  6
Continuous
 62
     7
370
    25
100
AcDbCircle
 10
4113.326887731815
 20
3618.657148412623
 30
0.0
 40
60.00000000000046
100
AcDbArc
 50
137.9422323736606
 51
222.0577676263399
  0
LINE
  5
B9
330
1F
100
AcDbEntity
  8
0
  6
Continuous
 62
     7
370
    25
100
AcDbLine
 10
4068.778699324452
 20
3658.849920270534
 30
0.0
 11
4072.4910483584
 21
3655.500522615709
 31
0.0
  0
LINE
  5
BA
330
1F
100
AcDbEntity
  8
0
  6
Continuous
 62
     7
370
    25
100
AcDbLine
 10
4068.778699324452
 20
3578.464376554713
 30
0.0
 11
4072.4910483584
 21
3581.813774209539
 31
0.0
  0
LINE
  5
BB
330
1F
100
AcDbEntity
  8
0
  6
Continuous
 62
     7
370
    25
100
AcDbLine
 10
4320.387990918511
 20
3724.937140727905
 30
0.0
 11
4325.144828891941
 21
3726.477430471604
 31
0.0
  0
ARC
  5
BC
330
1F
100
AcDbEntity
  8
0
  6
Continuous
 62
     7
370
    25
100
AcDbCircle
 10
3992.166170751931
 20
3618.657148412623
 30
0.0
 40
350.0000000000005
100
AcDbArc
 50
342.0577676263402
 51
17.94223237366044
  0
ARC
  5
BD
330
1F
100
AcDbEntity
  8
0
  6
Continuous
 62
     7
370
    25
100
AcDbCircle
 10
4328.643131700738
 20
3424.392084432721
 30
0.0
 40
350.0000000000003
100
AcDbArc
 50
102.0577676263393
 51
137.9422323736604
  0
LINE
  5
BE
330
1F
100
AcDbEntity
  8
0
  6
Continuous
 62
     7
370
    25
100
AcDbLine
 10
4255.528905937015
 20
3766.670202329515
 30
0.0
 11
4256.573394876496
 21
3761.78051493099
 31
0.0
  0
ARC
  5
BF
330
1F
100
AcDbEntity
  8
0
  6
Continuous
 62
     7
370
    25
100
AcDbCircle
 10
4268.062773210796
 20
3707.993953547207
 30
0.0
 40
60.00000000000048
100
AcDbArc
 50
17.94223237366071
 51
102.0577676263389
  0
ARC
  5
C0
330
1F
100
AcDbEntity
  8
0
  6
Continuous
 62
     7
370
    25
100
AcDbCircle
 10
4328.643131700738
 20
3812.922212392525
 30
0.0
 40
349.9999999999996
100
AcDbArc
 50
222.0577676263402
 51
257.9422323736614
  0
ARC
  5
C1
330
1F
100
AcDbEntity
  8
0
  6
Continuous
 62
     7
370
    25
100
AcDbCircle
 10
3992.166170751931
 20
2418.657148412624
 30
0.0
 40
345.0000000000002
100
AcDbArc
 50
342.0577676263401
 51
17.94223237366038
  0
LINE
  5
C2
330
1F
100
AcDbEntity
  8
0
  6
Continuous
 62
     7
370
    25
100
AcDbLine
 10
4320.387990918512
 20
2524.937140727905
 30
0.0
 11
4325.144828891941
 21
2526.477430471604
 31
0.0
  0
ARC
  5
C3
330
1F
100
AcDbEntity
  8
0
  6
Continuous
 62
     7
370
    25
100
AcDbCircle
 10
3992.166170751931
 20
2418.657148412624
 30
0.0
 40
350.0000000000004
100
AcDbArc
 50
342.0577676263402
 51
17.94223237366039
  0
LINE
  5
C4
330
1F
100
AcDbEntity
  8
0
  6
Continuous
 62
     7
370
    25
100
AcDbLine
 10
4320.387990918511
 20
2312.377156097342
 30
0.0
 11
4325.144828891941
 21
2310.836866353642
 31
0.0
  0
ARC
  5
C5
330
1F
100
AcDbEntity
  8
0
  6
Continuous
 62
     7
370
    25
100
AcDbCircle
 10
4328.643131700738
 20
2224.392084432722
 30
0.0
 40
349.9999999999997
100
AcDbArc
 50
102.0577676263393
 51
137.9422323736605
  0
LINE
  5
C6
330
1F
100
AcDbEntity
  8
0
  6
Continuous
 62
     7
370
    25
100
AcDbLine
 10
4255.528905937015
 20
2566.670202329515
 30
0.0
 11
4256.573394876496
 21
2561.78051493099
 31
0.0
  0
ARC
  5
C7
330
1F
100
AcDbEntity
  8
0
  6
Continuous
 62
     7
370
    25
100
AcDbCircle
 10
4328.643131700738
 20
2224.392084432722
 30
0.0
 40
344.9999999999997
100
AcDbArc
 50
102.0577676263394
 51
137.9422323736605
  0
LINE
  5
C8
330
1F
100
AcDbEntity
  8
0
  6
Continuous
 62
     7
370
    25
100
AcDbLine
 10
4068.778699324452
 20
2458.849920270534
 30
0.0
 11
4072.4910483584
 21
2455.500522615708
 31
0.0
  0
ARC
  5
C9
330
1F
100
AcDbEntity
  8
0
  6
Continuous
 62
     7
370
    25
100
AcDbCircle
 10
4268.062773210796
 20
2507.993953547208
 30
0.0
 40
55.00000000000045
100
AcDbArc
 50
17.94223237365972
 51
102.0577676263396
  0
ARC
  5
CA
330
1F
100
AcDbEntity
  8
0
  6
Continuous
 62
     7
370
    25
100
AcDbCircle
 10
4268.062773210796
 20
2507.993953547208
 30
0.0
 40
60.0000000000002
100
AcDbArc
 50
17.94223237365988
 51
102.0577676263391
  0
ARC
  5
CB
330
1F
100
AcDbEntity
  8
0
  6
Continuous
 62
     7
370
    25
100
AcDbCircle
 10
4268.062773210796
 20
2329.320343278039
 30
0.0
 40
55.00000000000029
100
AcDbArc
 50
257.9422323736613
 51
342.0577676263399
  0
ARC
  5
CC
330
1F
100
AcDbEntity
  8
0
  6
Continuous
 62
     7
370
    25
100
AcDbCircle
 10
4268.062773210796
 20
2329.320343278039
 30
0.0
 40
60.00000000000048
100
AcDbArc
 50
257.9422323736618
 51
342.0577676263401
  0
LINE
  5
CD
330
1F
100
AcDbEntity
  8
0
  6
Continuous
 62
     7
370
    25
100
AcDbLine
 10
4256.573394876496
 20
2275.533781894257
 30
0.0
 11
4255.528905937015
 21
2270.644094495732
 31
0.0
  0
ARC
  5
CE
330
1F
100
AcDbEntity
  8
0
  6
Continuous
 62
     7
370
    25
100
AcDbCircle
 10
4113.326887731815
 20
2418.657148412624
 30
0.0
 40
60.00000000000046
100
AcDbArc
 50
137.9422323736606
 51
222.0577676263399
  0
ARC
  5
CF
330
1F
100
AcDbEntity
  8
0
  6
Continuous
 62
     7
370
    25
100
AcDbCircle
 10
4113.326887731815
 20
2418.657148412624
 30
0.0
 40
55.00000000000007
100
AcDbArc
 50
137.9422323736606
 51
222.0577676263402
  0
LINE
  5
D0
330
1F
100
AcDbEntity
  8
0
  6
Continuous
 62
     7
370
    25
100
AcDbLine
 10
4068.778699324452
 20
2378.464376554713
 30
0.0
 11
4072.4910483584
 21
2381.813774209539
 31
0.0
  0
ARC
  5
D1
330
1F
100
AcDbEntity
  8
0
  6
Continuous
 62
     7
370
    25
100
AcDbCircle
 10
4328.643131700739
 20
2612.922212392525
 30
0.0
 40
345.0000000000003
100
AcDbArc
 50
222.0577676263403
 51
257.9422323736612
  0
ARC
  5
D2
330
1F
100
AcDbEntity
  8
0
  6
Continuous
 62
     7
370
    25
100
AcDbCircle
 10
4328.643131700739
 20
2612.922212392525
 30
0.0
 40
350.0000000000004
100
AcDbArc
 50
222.0577676263402
 51
257.9422323736614
  0
ARC
  5
D3
330
1F
100
AcDbEntity
  8
0
  6
Continuous
 62
     7
370
    25
100
AcDbCircle
 10
4328.643131700739
 20
2612.922212392525
 30
0.0
 40
339.0000000000004
100
AcDbArc
 50
222.2368926826385
 51
257.763107317363
  0
ARC
  5
D4
330
1F
100
AcDbEntity
  8
0
  6
Continuous
 62
     7
370
    25
100
AcDbCircle
 10
4267.38839405309
 20
2330.488402242752
 30
0.0
 40
49.99999999999976
100
AcDbArc
 50
257.7631073173626
 51
342.2368926826388
  0
ARC
  5
D5
330
1F
100
AcDbEntity
  8
0
  6
Continuous
 62
     7
370
    25
100
AcDbCircle
 10
3992.166170751931
 20
2418.657148412624
 30
0.0
 40
339.0000000000002
100
AcDbArc
 50
342.2368926826385
 51
17.76310731736209
  0
ARC
  5
D6
330
1F
100
AcDbEntity
  8
0
  6
Continuous
 62
     7
370
    25
100
AcDbCircle
 10
4267.38839405309
 20
2506.825894582494
 30
0.0
 40
49.99999999999992
100
AcDbArc
 50
17.76310731736199
 51
102.236892682637
  0
ARC
  5
D7
330
1F
100
AcDbEntity
  8
0
  6
Continuous
 62
     7
370
    25
100
AcDbCircle
 10
4114.67564604723
 20
2418.657148412624
 30
0.0
 40
50.0000000000003
100
AcDbArc
 50
137.7631073173619
 51
222.2368926826381
  0
ARC
  5
D8
330
1F
100
AcDbEntity
  8
0
  6
Continuous
 62
     7
370
    25
100
AcDbCircle
 10
4328.643131700738
 20
2224.392084432722
 30
0.0
 40
338.9999999999994
100
AcDbArc
 50
102.2368926826376
 51
137.7631073173621
  0
ARC
  5
D9
330
1F
100
AcDbEntity
  8
0
  6
Continuous
 62
     7
370
    25
100
AcDbCircle
 10
4216.484950236662
 20
3038.97982152673
 30
0.0
 40
14.00011601048599
100
AcDbArc
 50
22.1733215167127
 51
95.42750102393503
  0
ARC
  5
DA
330
1F
100
AcDbEntity
  8
0
  6
Continuous
 62
     7
370
    25
100
AcDbCircle
 10
4216.482758149703
 20
3038.980356866118
 30
0.0
 40
13.99937589240529
100
AcDbArc
 50
95.41877684738775
 51
157.827809943423
  0
ARC
  5
DB
330
1F
100
AcDbEntity
  8
0
  6
Continuous
 62
     7
370
    25
100
AcDbCircle
 10
4216.483923659971
 20
3038.348014723918
 30
0.0
 40
14.25132282813694
100
AcDbArc
 50
18.33387634292442
 51
135.7080779037032
  0
ARC
  5
DC
330
1F
100
AcDbEntity
  8
0
  6
Continuous
 62
     7
370
    25
100
AcDbCircle
 10
4216.479429089235
 20
3038.35184205272
 30
0.0
 40
14.24543298085116
100
AcDbArc
 50
135.7064728859054
 51
161.6744903123979
  0
ARC
  5
DD
330
1F
100
AcDbEntity
  8
0
  6
Continuous
 62
     7
370
    25
100
AcDbCircle
 10
4216.485229303534
 20
3032.151328465431
 30
0.0
 40
14.00051474978702
100
AcDbArc
 50
49.56144539361519
 51
65.28612607917186
  0
ARC
  5
DE
330
1F
100
AcDbEntity
  8
0
  6
Continuous
 62
     7
370
    25
100
AcDbCircle
 10
4216.483060132106
 20
3032.151328465376
 30
0.0
 40
14.00051474985126
100
AcDbArc
 50
114.7138739208708
 51
130.4385546063516
  0
ARC
  5
DF
330
1F
100
AcDbEntity
  8
0
  6
Continuous
 62
     7
370
    25
100
AcDbCircle
 10
4216.485006695554
 20
3033.061978261505
 30
0.0
 40
14.00079503889486
100
AcDbArc
 50
44.11047338749089
 51
75.66197442139778
  0
ARC
  5
E0
330
1F
100
AcDbEntity
  8
0
  6
Continuous
 62
     7
370
    25
100
AcDbCircle
 10
4216.483198918587
 20
3033.062122781021
 30
0.0
 40
14.00063426328527
100
AcDbArc
 50
104.3378396972261
 51
135.8897124938901
  0
ARC
  5
E1
330
1F
100
AcDbEntity
  8
0
  6
Continuous
 62
     7
370
    25
100
AcDbCircle
 10
3616.484144717803
 20
3018.657148412624
 30
0.0
 40
24.15000000000009
100
AcDbArc
 50
90.0
 51
270.0000000000008
  0
ARC
  5
E2
330
1F
100
AcDbEntity
  8
0
  6
Continuous
 62
     7
370
    25
100
AcDbCircle
 10
4816.484144717803
 20
3018.657148412624
 30
0.0
 40
24.15000000000009
100
AcDbArc
 50
270.0000000000008
 51
90.0
  0
LINE
  5
E3
330
1F
100
AcDbEntity
  8
0
  6
Continuous
 62
     7
370
    25
100
AcDbLine
 10
3587.334144717803
 20
2811.774314803255
 30
0.0
 11
3587.334144717803
 21
2806.774314803255
 31
0.0
  0
LINE
  5
E4
330
1F
100
AcDbEntity
  8
0
  6
Continuous
 62
     7
370
    25
100
AcDbLine
 10
3592.334144717803
 20
2810.43400445184
 30
0.0
 11
3592.334144717803
 21
2806.774314803255
 31
0.0
  0
ARC
  5
E5
330
1F
100
AcDbEntity
  8
0
  6
Continuous
 62
     7
370
    25
100
AcDbCircle
 10
4216.48496493378
 20
3039.002646494675
 30
0.0
 40
14.00006378335606
100
AcDbArc
 50
21.26413250550481
 51
95.42758175134999
  0
ARC
  5
E6
330
1F
100
AcDbEntity
  8
0
  6
Continuous
 62
     7
370
    25
100
AcDbCircle
 10
4216.48273603136
 20
3039.003180184858
 30
0.0
 40
13.99932182745032
100
AcDbArc
 50
95.41870690585801
 51
158.7370295761792
  0
ARC
  5
E7
330
1F
100
AcDbEntity
  8
0
  6
Continuous
 62
     7
370
    25
100
AcDbCircle
 10
4216.485634974998
 20
3041.212750038853
 30
0.0
 40
14.38722491710596
100
AcDbArc
 50
6.362611599376425
 51
95.43067749316465
  0
ARC
  5
E8
330
1F
100
AcDbEntity
  8
0
  6
Continuous
 62
     7
370
    25
100
AcDbCircle
 10
4216.481994609774
 20
3041.213102368422
 30
0.0
 40
14.38653008801579
100
AcDbArc
 50
95.41637725361468
 51
173.6384917176395
  0
ARC
  5
E9
330
1F
100
AcDbEntity
  8
0
  6
Continuous
 62
     7
370
    25
100
AcDbCircle
 10
4216.485718377334
 20
3041.292131588455
 30
0.0
 40
15.97204708717585
100
AcDbArc
 50
5.442932068139262
 51
95.43036717550359
  0
ARC
  5
EA
330
1F
100
AcDbEntity
  8
0
  6
Continuous
 62
     7
370
    25
100
AcDbCircle
 10
4216.481823859824
 20
3041.292548756275
 30
0.0
 40
15.97126369128632
100
AcDbArc
 50
95.41660020146135
 51
174.5583034852759
  0
ARC
  5
EB
330
1F
100
AcDbEntity
  8
0
  6
Continuous
 62
     7
370
    25
100
AcDbCircle
 10
4216.485788897591
 20
3041.371500911059
 30
0.0
 40
17.55688021071459
100
AcDbArc
 50
4.690382753235577
 51
95.43006725411929
  0
ARC
  5
EC
330
1F
100
AcDbEntity
  8
0
  6
Continuous
 62
     7
370
    25
100
AcDbCircle
 10
4216.48166500844
 20
3041.371985675481
 30
0.0
 40
17.5560078443474
100
AcDbArc
 50
95.41681864109197
 51
175.3109710490052
  0
ARC
  5
ED
330
1F
100
AcDbEntity
  8
0
  6
Continuous
 62
     7
370
    25
100
AcDbCircle
 10
4216.48612157836
 20
3041.451182518104
 30
0.0
 40
19.14142726098913
100
AcDbArc
 50
4.062197005379052
 51
95.43068664964154
  0
ARC
  5
EE
330
1F
100
AcDbEntity
  8
0
  6
Continuous
 62
     7
370
    25
100
AcDbCircle
 10
4216.481516605457
 20
3041.451414315892
 30
0.0
 40
19.14076122581212
100
AcDbArc
 50
95.41702970661942
 51
175.938357015026
  0
ARC
  5
EF
330
1F
100
AcDbEntity
  8
0
  6
Continuous
 62
     7
370
    25
100
AcDbCircle
 10
4216.486184643031
 20
3041.53054486289
 30
0.0
 40
20.72626662492469
100
AcDbArc
 50
3.531283488667023
 51
95.43038581924902
  0
ARC
  5
F0
330
1F
100
AcDbEntity
  8
0
  6
Continuous
 62
     7
370
    25
100
AcDbCircle
 10
4216.480915124804
 20
3041.53128299707
 30
0.0
 40
20.7250337623015
100
AcDbArc
 50
95.41607637307759
 51
176.4705506834591
  0
ARC
  5
F1
330
1F
100
AcDbEntity
  8
0
  6
Continuous
 62
     7
370
    25
100
AcDbCircle
 10
4216.486382385581
 20
3041.610065642497
 30
0.0
 40
22.31096101083835
100
AcDbArc
 50
3.075651540649949
 51
95.43051053792622
  0
ARC
  5
F2
330
1F
100
AcDbEntity
  8
0
  6
Continuous
 62
     7
370
    25
100
AcDbCircle
 10
4216.480764179249
 20
3041.610713515969
 30
0.0
 40
22.30978503267856
100
AcDbArc
 50
95.41630413848382
 51
176.9258524434348
  0
ARC
  5
F3
330
1F
100
AcDbEntity
  8
0
  6
Continuous
 62
     7
370
    25
100
AcDbCircle
 10
4216.48643399062
 20
3041.689417478777
 30
0.0
 40
23.89580975191817
100
AcDbArc
 50
2.680998956190795
 51
95.43023155156943
  0
ARC
  5
F4
330
1F
100
AcDbEntity
  8
0
  6
Continuous
 62
     7
370
    25
100
AcDbCircle
 10
4216.480464709213
 20
3041.690287081281
 30
0.0
 40
23.8943798760803
100
AcDbArc
 50
95.4161795168896
 51
177.3209279746221
  0
ARC
  5
F5
330
1F
100
AcDbEntity
  8
0
  6
Continuous
 62
     7
370
    25
100
AcDbCircle
 10
4216.486929814428
 20
3041.769279865572
 30
0.0
 40
25.48019227489406
100
AcDbArc
 50
2.334438552742106
 51
95.43109031440955
  0
ARC
  5
F6
330
1F
100
AcDbEntity
  8
0
  6
Continuous
 62
     7
370
    25
100
AcDbCircle
 10
4216.48032296278
 20
3041.7697106512
 30
0.0
 40
25.4791389328668
100
AcDbArc
 50
95.41639165423015
 51
177.666434411164
  0
ARC
  5
F7
330
1F
100
AcDbEntity
  8
0
  6
Continuous
 62
     7
370
    25
100
AcDbCircle
 10
4216.487045940124
 20
3041.8487054754
 30
0.0
 40
27.06497367892476
100
AcDbArc
 50
2.029420757719574
 51
95.43096080287959
  0
ARC
  5
F8
330
1F
100
AcDbEntity
  8
0
  6
Continuous
 62
     7
370
    25
100
AcDbCircle
 10
4216.479778683235
 20
3041.849514778738
 30
0.0
 40
27.06348113644071
100
AcDbArc
 50
95.4158066075562
 51
177.9721817147172
  0
ARC
  5
F9
330
1F
100
AcDbEntity
  8
0
  6
Continuous
 62
     7
370
    25
100
AcDbCircle
 10
4216.487087499682
 20
3041.928047243414
 30
0.0
 40
28.64983149140146
100
AcDbArc
 50
1.758359174634865
 51
95.43068129739127
  0
ARC
  5
FA
330
1F
100
AcDbEntity
  8
0
  6
Continuous
 62
     7
370
    25
100
AcDbCircle
 10
4216.479639336697
 20
3041.928936402022
 30
0.0
 40
28.64824235705924
100
AcDbArc
 50
95.41602031739534
 51
178.2433223898684
  0
ARC
  5
FB
330
1F
100
AcDbEntity
  8
0
  6
Continuous
 62
     7
370
    25
100
AcDbCircle
 10
4216.487121893581
 20
3042.007382242303
 30
0.0
 40
30.23469536509514
100
AcDbArc
 50
1.51576098503068
 51
95.43041636223007
  0
ARC
  5
FC
330
1F
100
AcDbEntity
  8
0
  6
Continuous
 62
     7
370
    25
100
AcDbCircle
 10
4216.479507256178
 20
3042.008352247521
 30
0.0
 40
30.2330100158651
100
AcDbArc
 50
95.41622429774328
 51
178.4859934368702
  0
ARC
  5
FD
330
1F
100
AcDbEntity
  8
0
  6
Continuous
 62
     7
370
    25
100
AcDbCircle
 10
4216.487541781514
 20
3042.087236194024
 30
0.0
 40
31.49670203288626
100
AcDbArc
 50
1.30970931750669
 51
95.43101177775231
  0
ARC
  5
FE
330
1F
100
AcDbEntity
  8
0
  6
Continuous
 62
     7
370
    25
100
AcDbCircle
 10
4216.47936752615
 20
3042.087860391085
 30
0.0
 40
31.495308003962
100
AcDbArc
 50
95.41631552805212
 51
178.6913685289108
  0
ARC
  5
FF
330
1F
100
AcDbEntity
  8
0
  6
Continuous
 62
     7
370
    25
100
AcDbCircle
 10
4216.487864630951
 20
3042.12051221868
 30
0.0
 40
36.28468666233243
100
AcDbArc
 50
1.0843060256856
 51
95.43067806099569
  0
ARC
  5
100
330
1F
100
AcDbEntity
  8
0
  6
Continuous
 62
     7
370
    25
100
AcDbCircle
 10
4216.478356557578
 20
3042.121709455119
 30
0.0
 40
36.28259614808774
100
AcDbArc
 50
95.41590968122266
 51
178.9175224496656
  0
ARC
  5
101
330
1F
100
AcDbEntity
  8
0
  6
Continuous
 62
     7
370
    25
100
AcDbCircle
 10
4216.484144717802
 20
3037.460527545448
 30
0.0
 40
12.25119084465682
100
AcDbArc
 50
25.87545727251622
 51
154.1245427274838
  0
ARC
  5
102
330
1F
100
AcDbEntity
  8
0
  6
Continuous
 62
     7
370
    25
100
AcDbCircle
 10
4216.484144717802
 20
3037.505659416695
 30
0.0
 40
14.25117203673089
100
AcDbArc
 50
21.83924499835287
 51
158.1607550016471
  0
ENDSEC
  0
SECTION
  2
OBJECTS
  0
DICTIONARY
  5
C
330
0
100
AcDbDictionary
281
     1
  3
ACAD_CIP_PREVIOUS_PRODUCT_INFO
350
112
  3
ACAD_COLOR
350
10C
  3
ACAD_DETAILVIEWSTYLE
350
107
  3
ACAD_GROUP
350
D
  3
ACAD_LAYOUT
350
1A
  3
ACAD_MATERIAL
350
43
  3
ACAD_MLEADERSTYLE
350
5B
  3
ACAD_MLINESTYLE
350
17
  3
ACAD_PLOTSETTINGS
350
19
  3
ACAD_PLOTSTYLENAME
350
E
  3
ACAD_RENDER_ACTIVE_RAPIDRT_SETTINGS
350
11A
  3
ACAD_RENDER_RAPIDRT_SETTINGS
350
113
  3
ACAD_SCALELIST
350
47
  3
ACAD_SECTIONVIEWSTYLE
350
108
  3
ACAD_TABLESTYLE
350
59
  3
ACAD_VISUALSTYLE
350
2A
  3
ACDB_RECOMPOSE_DATA
350
122
  3
AcDbVariableDictionary
350
103
  0
SUN
  5
5D
330
29
100
AcDbSun
 90
        1
290
     0
 63
     7
421
 16777215
 40
1.0
291
     1
 91
  2455826
 92
 54000000
292
     0
 70
     0
 71
   256
280
     1
  0
XRECORD
  5
112
102
{ACAD_REACTORS
330
C
102
}
330
C
100
AcDbXrecord
280
     1
300
ACD
300
2020
300

  0
DICTIONARY
  5
10C
102
{ACAD_REACTORS
330
C
102
}
330
C
100
AcDbDictionary
281
     1
  0
DICTIONARY
  5
107
102
{ACAD_REACTORS
330
C
102
}
330
C
100
AcDbDictionary
281
     1
  3
Metric50
350
10E
  0
DICTIONARY
  5
D
102
{ACAD_REACTORS
330
C
102
}
330
C
100
AcDbDictionary
281
     1
  0
DICTIONARY
  5
1A
102
{ACAD_REACTORS
330
C
102
}
330
C
100
AcDbDictionary
281
     1
  3
Layout1
350
1E
  3
Layout2
350
26
  3
Model
350
22
  0
DICTIONARY
  5
43
102
{ACAD_REACTORS
330
C
102
}
330
C
100
AcDbDictionary
281
     1
  3
ByBlock
350
45
  3
ByLayer
350
44
  3
Global
350
46
  0
DICTIONARY
  5
5B
102
{ACAD_REACTORS
330
C
102
}
330
C
100
AcDbDictionary
281
     1
  3
Standard
350
5C
  0
DICTIONARY
  5
17
102
{ACAD_REACTORS
330
C
102
}
330
C
100
AcDbDictionary
281
     1
  3
Standard
350
18
  0
DICTIONARY
  5
19
102
{ACAD_REACTORS
330
C
102
}
330
C
100
AcDbDictionary
281
     1
  0
ACDBDICTIONARYWDFLT
  5
E
102
{ACAD_REACTORS
330
C
102
}
330
C
100
AcDbDictionary
281
     1
  3
Normal
350
F
100
AcDbDictionaryWithDefault
340
F
  0
RAPIDRTRENDERSETTINGS
  5
11A
102
{ACAD_REACTORS
330
C
102
}
330
C
100
AcDbRenderSettings
 90
        2
  1
Medium
290
     1
290
     0
290
     1
290
     1
  1

  1
Applies 5 rendering levels
 90
        0
100
AcDbRapidRTRenderSettings
 90
        3
 70
     0
 90
        5
 90
        1
 70
     1
 70
     2
 40
3.0
 40
3.0
290
     1
  0
DICTIONARY
  5
113
102
{ACAD_REACTORS
330
C
102
}
330
C
100
AcDbDictionary
281
     1
  3
Coffee-Break Quality
350
117
  3
High
350
116
  3
Low
350
114
  3
Lunch Quality
350
118
  3
Medium
350
115
  3
Overnight Quality
350
119
  0
DICTIONARY
  5
47
102
{ACAD_REACTORS
330
C
102
}
330
C
100
AcDbDictionary
281
     1
  3
A0
350
48
  3
A1
350
49
  3
A2
350
4A
  3
A3
350
4B
  3
A4
350
4C
  3
A5
350
4D
  3
A6
350
4E
  3
A7
350
4F
  3
A8
350
50
  3
A9
350
51
  3
B0
350
52
  3
B1
350
53
  3
B2
350
54
  3
B3
350
55
  3
B4
350
56
  3
B5
350
57
  3
B6
350
58
  0
DICTIONARY
  5
108
102
{ACAD_REACTORS
330
C
102
}
330
C
100
AcDbDictionary
281
     1
  3
Metric50
350
10D
  0
DICTIONARY
  5
59
102
{ACAD_REACTORS
330
C
102
}
330
C
100
AcDbDictionary
281
     1
  3
Standard
350
5A
  0
DICTIONARY
  5
2A
102
{ACAD_REACTORS
330
C
102
}
330
C
100
AcDbDictionary
281
     1
  3
2dWireframe
350
2F
  3
Basic
350
32
  3
Brighten
350
36
  3
ColorChange
350
3A
  3
Conceptual
350
34
  3
Dim
350
35
  3
EdgeColorOff
350
3D
  3
Facepattern
350
39
  3
Flat
350
2B
  3
FlatWithEdges
350
2C
  3
Gouraud
350
2D
  3
GouraudWithEdges
350
2E
  3
Hidden
350
31
  3
JitterOff
350
3B
  3
Linepattern
350
38
  3
OverhangOff
350
3C
  3
Realistic
350
33
  3
Shaded
350
42
  3
Shaded with edges
350
41
  3
Shades of Gray
350
3E
  3
Sketchy
350
3F
  3
Thicken
350
37
  3
Wireframe
350
30
  3
X-Ray
350
40
  0
XRECORD
  5
122
102
{ACAD_REACTORS
330
C
102
}
330
C
100
AcDbXrecord
280
     1
 90
        1
330
5A
  0
DICTIONARY
  5
103
102
{ACAD_REACTORS
330
C
102
}
330
C
100
AcDbDictionary
281
     1
  3
CANNOSCALE
350
104
  3
CENTEREXE
350
109
  3
CENTERLTYPEFILE
350
10A
  3
CMLEADERSTYLE
350
106
  3
CTABLESTYLE
350
105
  3
CVIEWDETAILSTYLE
350
11E
  3
CVIEWSECTIONSTYLE
350
11F
  0
ACDBDETAILVIEWSTYLE
  5
10E
102
{ACAD_REACTORS
330
107
102
}
330
107
100
AcDbModelDocViewStyle
 70
     0
  3
Metric50
290
     1
300
Metric50
 90
        0
100
AcDbDetailViewStyle
 70
     0
 71
     0
 90
        3
 71
     1
340
11
 62
   256
 40
5.0
340
0
 62
   256
 40
5.0
300

 40
0.0
280
     1
 71
     2
340
16
 90
       25
 62
   256
 71
     3
340
11
 62
   256
 40
5.0
 90
        0
 40
15.0
 90
        1
300
%<\AcVar ViewDetailId>% (%<\AcVar ViewScale \f "%sn">%)
 71
     4
340
16
 90
       25
 62
   256
340
16
 90
       25
 62
   256
280
     0
  0
LAYOUT
  5
1E
102
{ACAD_REACTORS
330
1A
102
}
330
1A
100
AcDbPlotSettings
  1

  2
none_device
  4

  6

 40
0.0
 41
0.0
 42
0.0
 43
0.0
 44
0.0
 45
0.0
 46
0.0
 47
0.0
 48
0.0
 49
0.0
140
0.0
141
0.0
142
1.0
143
1.0
 70
   688
 72
     1
 73
     0
 74
     5
  7

 75
    16
147
1.0
 76
     0
 77
     2
 78
   300
148
0.0
149
0.0
100
AcDbLayout
  1
Layout1
 70
     1
 71
     1
 10
0.0
 20
0.0
 11
420.0
 21
297.0
 12
0.0
 22
0.0
 32
0.0
 14
1.000000000000000E+20
 24
1.000000000000000E+20
 34
1.000000000000000E+20
 15
-1.000000000000000E+20
 25
-1.000000000000000E+20
 35
-1.000000000000000E+20
146
0.0
 13
0.0
 23
0.0
 33
0.0
 16
1.0
 26
0.0
 36
0.0
 17
0.0
 27
1.0
 37
0.0
 76
     0
330
1B
  0
LAYOUT
  5
26
102
{ACAD_REACTORS
330
1A
102
}
330
1A
100
AcDbPlotSettings
  1

  2
none_device
  4

  6

 40
0.0
 41
0.0
 42
0.0
 43
0.0
 44
0.0
 45
0.0
 46
0.0
 47
0.0
 48
0.0
 49
0.0
140
0.0
141
0.0
142
1.0
143
1.0
 70
   688
 72
     1
 73
     0
 74
     5
  7

 75
    16
147
1.0
 76
     0
 77
     2
 78
   300
148
0.0
149
0.0
100
AcDbLayout
  1
Layout2
 70
     1
 71
     2
 10
0.0
 20
0.0
 11
0.0
 21
0.0
 12
0.0
 22
0.0
 32
0.0
 14
0.0
 24
0.0
 34
0.0
 15
0.0
 25
0.0
 35
0.0
146
0.0
 13
0.0
 23
0.0
 33
0.0
 16
1.0
 26
0.0
 36
0.0
 17
0.0
 27
1.0
 37
0.0
 76
     0
330
23
  0
LAYOUT
  5
22
102
{ACAD_REACTORS
330
1A
102
}
330
1A
100
AcDbPlotSettings
  1

  2
none_device
  4
Letter_(8.50_x_11.00_Inches)
  6

 40
6.349999999999999
 41
6.349999999999999
 42
6.350005079999999
 43
6.350005079999999
 44
215.9
 45
279.4
 46
0.0
 47
0.0
 48
0.0
 49
0.0
140
0.0
141
0.0
142
1.0
143
1.0
 70
  1712
 72
     1
 73
     0
 74
     0
  7

 75
     0
147
1.0
 76
     0
 77
     2
 78
   300
148
0.0
149
0.0
100
AcDbLayout
  1
Model
 70
     1
 71
     0
 10
0.0
 20
0.0
 11
8400.0
 21
5940.0
 12
0.0
 22
0.0
 32
0.0
 14
0.0
 24
0.0
 34
0.0
 15
8400.0
 25
5940.0
 35
0.0
146
0.0
 13
0.0
 23
0.0
 33
0.0
 16
1.0
 26
0.0
 36
0.0
 17
0.0
 27
1.0
 37
0.0
 76
     0
330
1F
331
29
  0
MATERIAL
  5
45
102
{ACAD_REACTORS
330
43
102
}
330
43
100
AcDbMaterial
  1
ByBlock
 73
     1
 78
     1
172
     1
176
     1
270
     1
274
     1
  0
MATERIAL
  5
44
102
{ACAD_REACTORS
330
43
102
}
330
43
100
AcDbMaterial
  1
ByLayer
 73
     1
 78
     1
172
     1
176
     1
270
     1
274
     1
  0
MATERIAL
  5
46
102
{ACAD_REACTORS
330
43
102
}
330
43
100
AcDbMaterial
  1
Global
 73
     1
 78
     1
172
     1
176
     1
270
     1
274
     1
  0
MLEADERSTYLE
  5
5C
102
{ACAD_REACTORS
330
5B
102
}
330
5B
100
AcDbMLeaderStyle
179
     2
170
     2
171
     1
172
     0
 90
        2
 40
0.0
 41
0.0
173
     1
 91
-1056964608
340
14
 92
       -2
290
     1
 42
2.0
291
     1
 43
8.0
  3
Standard
 44
4.0
300

342
11
174
     1
178
     6
175
     1
176
     0
 93
-1056964608
 45
4.0
292
     0
297
     0
 46
4.0
 94
-1056964608
 47
1.0
 49
1.0
140
1.0
293
     1
141
0.0
294
     1
177
     0
142
1.0
295
     0
296
     0
143
3.75
271
     0
272
     9
273
     9
298
     0
  0
MLINESTYLE
  5
18
102
{ACAD_REACTORS
330
17
102
}
330
17
100
AcDbMlineStyle
  2
STANDARD
 70
     0
  3

 62
   256
 51
90.0
 52
90.0
 71
     2
 49
0.5
 62
   256
  6
BYLAYER
 49
-0.5
 62
   256
  6
BYLAYER
  0
ACDBPLACEHOLDER
  5
F
102
{ACAD_REACTORS
330
E
102
}
330
E
  0
RAPIDRTRENDERSETTINGS
  5
117
102
{ACAD_REACTORS
330
113
102
}
330
113
100
AcDbRenderSettings
 90
        2
  1
Coffee-Break Quality
290
     1
290
     0
290
     1
290
     1
  1

  1
Renders for 10 minutes
 90
        3
100
AcDbRapidRTRenderSettings
 90
        3
 70
     1
 90
        1
 90
       10
 70
     1
 70
     2
 40
3.0
 40
3.0
290
     1
  0
RAPIDRTRENDERSETTINGS
  5
116
102
{ACAD_REACTORS
330
113
102
}
330
113
100
AcDbRenderSettings
 90
        2
  1
High
290
     1
290
     0
290
     1
290
     1
  1

  1
Applies 10 rendering levels
 90
        2
100
AcDbRapidRTRenderSettings
 90
        3
 70
     0
 90
       10
 90
        1
 70
     2
 70
     2
 40
3.0
 40
3.0
290
     1
  0
RAPIDRTRENDERSETTINGS
  5
114
102
{ACAD_REACTORS
330
113
102
}
330
113
100
AcDbRenderSettings
 90
        2
  1
Low
290
     1
290
     0
290
     1
290
     1
  1

  1
Applies 1 rendering level
 90
        0
100
AcDbRapidRTRenderSettings
 90
        3
 70
     0
 90
        1
 90
        1
 70
     0
 70
     2
 40
3.0
 40
3.0
290
     1
  0
RAPIDRTRENDERSETTINGS
  5
118
102
{ACAD_REACTORS
330
113
102
}
330
113
100
AcDbRenderSettings
 90
        2
  1
Lunch Quality
290
     1
290
     0
290
     1
290
     1
  1

  1
Renders for 60 minutes
 90
        4
100
AcDbRapidRTRenderSettings
 90
        3
 70
     1
 90
        1
 90
       60
 70
     2
 70
     2
 40
3.0
 40
3.0
290
     1
  0
RAPIDRTRENDERSETTINGS
  5
115
102
{ACAD_REACTORS
330
113
102
}
330
113
100
AcDbRenderSettings
 90
        2
  1
Medium
290
     1
290
     0
290
     1
290
     1
  1

  1
Applies 5 rendering levels
 90
        1
100
AcDbRapidRTRenderSettings
 90
        3
 70
     0
 90
        5
 90
        1
 70
     1
 70
     2
 40
3.0
 40
3.0
290
     1
  0
RAPIDRTRENDERSETTINGS
  5
119
102
{ACAD_REACTORS
330
113
102
}
330
113
100
AcDbRenderSettings
 90
        2
  1
Overnight Quality
290
     1
290
     0
290
     1
290
     1
  1

  1
Renders for 12 hours
 90
        5
100
AcDbRapidRTRenderSettings
 90
        3
 70
     1
 90
        1
 90
      720
 70
     2
 70
     2
 40
3.0
 40
3.0
290
     1
  0
SCALE
  5
48
102
{ACAD_REACTORS
330
47
102
}
330
47
100
AcDbScale
 70
     0
300
1:1
140
1.0
141
1.0
290
     1
  0
SCALE
  5
49
102
{ACAD_REACTORS
330
47
102
}
330
47
100
AcDbScale
 70
     0
300
1:2
140
1.0
141
2.0
290
     0
  0
SCALE
  5
4A
102
{ACAD_REACTORS
330
47
102
}
330
47
100
AcDbScale
 70
     0
300
1:4
140
1.0
141
4.0
290
     0
  0
SCALE
  5
4B
102
{ACAD_REACTORS
330
47
102
}
330
47
100
AcDbScale
 70
     0
300
1:5
140
1.0
141
5.0
290
     0
  0
SCALE
  5
4C
102
{ACAD_REACTORS
330
47
102
}
330
47
100
AcDbScale
 70
     0
300
1:8
140
1.0
141
8.0
290
     0
  0
SCALE
  5
4D
102
{ACAD_REACTORS
330
47
102
}
330
47
100
AcDbScale
 70
     0
300
1:10
140
1.0
141
10.0
290
     0
  0
SCALE
  5
4E
102
{ACAD_REACTORS
330
47
102
}
330
47
100
AcDbScale
 70
     0
300
1:16
140
1.0
141
16.0
290
     0
  0
SCALE
  5
4F
102
{ACAD_REACTORS
330
47
102
}
330
47
100
AcDbScale
 70
     0
300
1:20
140
1.0
141
20.0
290
     0
  0
SCALE
  5
50
102
{ACAD_REACTORS
330
47
102
}
330
47
100
AcDbScale
 70
     0
300
1:30
140
1.0
141
30.0
290
     0
  0
SCALE
  5
51
102
{ACAD_REACTORS
330
47
102
}
330
47
100
AcDbScale
 70
     0
300
1:40
140
1.0
141
40.0
290
     0
  0
SCALE
  5
52
102
{ACAD_REACTORS
330
47
102
}
330
47
100
AcDbScale
 70
     0
300
1:50
140
1.0
141
50.0
290
     0
  0
SCALE
  5
53
102
{ACAD_REACTORS
330
47
102
}
330
47
100
AcDbScale
 70
     0
300
1:100
140
1.0
141
100.0
290
     0
  0
SCALE
  5
54
102
{ACAD_REACTORS
330
47
102
}
330
47
100
AcDbScale
 70
     0
300
2:1
140
2.0
141
1.0
290
     0
  0
SCALE
  5
55
102
{ACAD_REACTORS
330
47
102
}
330
47
100
AcDbScale
 70
     0
300
4:1
140
4.0
141
1.0
290
     0
  0
SCALE
  5
56
102
{ACAD_REACTORS
330
47
102
}
330
47
100
AcDbScale
 70
     0
300
8:1
140
8.0
141
1.0
290
     0
  0
SCALE
  5
57
102
{ACAD_REACTORS
330
47
102
}
330
47
100
AcDbScale
 70
     0
300
10:1
140
10.0
141
1.0
290
     0
  0
SCALE
  5
58
102
{ACAD_REACTORS
330
47
102
}
330
47
100
AcDbScale
 70
     0
300
100:1
140
100.0
141
1.0
290
     0
  0
ACDBSECTIONVIEWSTYLE
  5
10D
102
{ACAD_REACTORS
330
108
102
}
330
108
100
AcDbModelDocViewStyle
 70
     0
  3
Metric50
290
     1
300
Metric50
 90
        0
100
AcDbSectionViewStyle
 70
     0
 71
     0
 90
      102
 71
     1
340
11
 62
   256
 40
5.0
340
0
340
0
 62
   256
 40
5.0
300
I, O, Q, S, X, Z
 40
10.0
 90
        0
 40
2.5
 90
        0
 71
     2
340
16
 90
       25
 62
   256
340
16
 90
       50
 62
   256
 40
5.0
 40
2.5
 40
5.0
 71
     3
340
11
 62
   256
 40
5.0
 90
        0
 40
15.0
 90
        1
300
%<\AcVar ViewSectionStartId>%-%<\AcVar ViewSectionEndId>% (%<\AcVar ViewScale \f "%sn">%)
 71
     4
 62
   256
 62
   257
300
ANSI31
 40
1.0
 90
        0
290
     0
290
     0
 90
        6
 40
0.0
 40
1.570796326794896
 40
0.2617993877991494
 40
1.308996938995747
 40
-0.2617993877991494
 40
1.832595714594046
  0
TABLESTYLE
  5
5A
102
{ACAD_XDICTIONARY
360
120
102
}
102
{ACAD_REACTORS
330
59
102
}
330
59
100
AcDbTableStyle
280
     0
  3
Standard
 70
     0
 71
     0
 40
1.5
 41
1.5
280
     0
281
     0
  7
Standard
140
4.5
170
     2
 62
     0
 63
     7
283
     0
 90
        4
 91
        0
  1

274
    -2
284
     1
 64
     0
275
    -2
285
     1
 65
     0
276
    -2
286
     1
 66
     0
277
    -2
287
     1
 67
     0
278
    -2
288
     1
 68
     0
279
    -2
289
     1
 69
     0
  7
Standard
140
6.0
170
     5
 62
     0
 63
     7
283
     0
 90
        4
 91
        0
  1

274
    -2
284
     1
 64
     0
275
    -2
285
     1
 65
     0
276
    -2
286
     1
 66
     0
277
    -2
287
     1
 67
     0
278
    -2
288
     1
 68
     0
279
    -2
289
     1
 69
     0
  7
Standard
140
4.5
170
     5
 62
     0
 63
     7
283
     0
 90
        4
 91
        0
  1

274
    -2
284
     1
 64
     0
275
    -2
285
     1
 65
     0
276
    -2
286
     1
 66
     0
277
    -2
287
     1
 67
     0
278
    -2
288
     1
 68
     0
279
    -2
289
     1
 69
     0
  0
VISUALSTYLE
  5
2F
102
{ACAD_REACTORS
330
2A
102
}
330
2A
100
AcDbVisualStyle
  2
2dWireframe
 70
     4
177
     3
291
     0
 70
    58
 90
        0
176
     1
 90
        2
176
     1
 90
        0
176
     1
 90
        0
176
     1
 40
0.6
176
     1
 40
30.0
176
     1
 62
     7
420
 16777215
176
     1
 90
        1
176
     1
 90
        4
176
     1
 62
     7
176
     1
 62
   257
176
     1
 90
        1
176
     1
 90
        1
176
     1
 40
1.0
176
     1
 90
        0
176
     1
 62
   257
176
     1
 40
1.0
176
     1
 90
        1
176
     1
 90
        6
176
     1
 90
        2
176
     1
 62
     7
176
     1
 90
        5
176
     1
 90
        0
176
     1
 90
        0
176
     1
290
     0
176
     1
 90
        1
176
     1
 40
0.0
176
     1
 90
        0
176
     1
290
     1
176
     1
290
     1
176
     1
290
     0
176
     1
290
     0
176
     1
290
     0
176
     1
290
     0
176
     1
290
     0
176
     1
290
     0
176
     1
290
     0
176
     1
 90
       50
176
     1
 40
0.0
176
     1
 40
1.0
176
     1
 90
        0
176
     1
 62
    18
420
        0
176
     1
 90
       50
176
     1
 90
        3
176
     1
 62
     5
420
      255
176
     1
290
     0
176
     1
 90
       50
176
     1
 90
       50
176
     1
 90
       50
176
     1
290
     0
176
     1
 90
       50
176
     1
 62
   256
176
     0
 40
1.0
176
     0
 90
        2
176
     1
  1
strokes_ogs.tif
176
     1
290
     0
176
     1
 40
1.0
176
     1
 40
1.0
176
     1
  0
VISUALSTYLE
  5
32
102
{ACAD_REACTORS
330
2A
102
}
330
2A
100
AcDbVisualStyle
  2
Basic
 70
     7
177
     3
291
     1
 70
    58
 90
        1
176
     1
 90
        0
176
     1
 90
        1
176
     1
 90
        0
176
     1
 40
0.6
176
     1
 40
30.0
176
     1
 62
     7
420
 16777215
176
     1
 90
        0
176
     1
 90
        4
176
     1
 62
     7
176
     1
 62
   257
176
     1
 90
        1
176
     1
 90
        1
176
     1
 40
1.0
176
     1
 90
        8
176
     1
 62
     7
176
     1
 40
1.0
176
     1
 90
        1
176
     1
 90
        6
176
     1
 90
        2
176
     1
 62
     7
176
     1
 90
        5
176
     1
 90
        0
176
     1
 90
        0
176
     1
290
     0
176
     1
 90
        1
176
     1
 40
0.0
176
     1
 90
        0
176
     1
290
     0
176
     1
290
     1
176
     1
290
     1
176
     1
290
     0
176
     1
290
     0
176
     1
290
     0
176
     1
290
     0
176
     1
290
     0
176
     1
290
     0
176
     1
 90
       50
176
     1
 40
0.0
176
     1
 40
1.0
176
     1
 90
        0
176
     1
 62
    18
420
        0
176
     1
 90
       50
176
     1
 90
        3
176
     1
 62
     5
420
      255
176
     1
290
     0
176
     1
 90
       50
176
     1
 90
       50
176
     1
 90
       50
176
     1
290
     0
176
     1
 90
       50
176
     1
 62
   256
176
     0
 40
1.0
176
     0
 90
        2
176
     1
  1
strokes_ogs.tif
176
     1
290
     0
176
     1
 40
1.0
176
     1
 40
1.0
176
     1
  0
VISUALSTYLE
  5
36
102
{ACAD_REACTORS
330
2A
102
}
330
2A
100
AcDbVisualStyle
  2
Brighten
 70
    12
177
     3
291
     1
 70
    58
 90
        2
176
     1
 90
        2
176
     1
 90
        0
176
     1
 90
        0
176
     1
 40
0.6
176
     1
 40
30.0
176
     1
 62
     7
420
 16777215
176
     1
 90
        1
176
     1
 90
        4
176
     1
 62
     7
176
     1
 62
   257
176
     1
 90
        1
176
     1
 90
        1
176
     1
 40
1.0
176
     1
 90
        8
176
     1
 62
     7
176
     1
 40
1.0
176
     1
 90
        1
176
     1
 90
        6
176
     1
 90
        2
176
     1
 62
     7
176
     1
 90
        5
176
     1
 90
        0
176
     1
 90
        0
176
     1
290
     0
176
     1
 90
        1
176
     1
 40
50.0
176
     1
 90
        0
176
     1
290
     0
176
     1
290
     1
176
     1
290
     1
176
     1
290
     0
176
     1
290
     0
176
     1
290
     0
176
     1
290
     0
176
     1
290
     0
176
     1
290
     0
176
     1
 90
       50
176
     1
 40
0.0
176
     1
 40
1.0
176
     1
 90
        0
176
     1
 62
    18
420
        0
176
     1
 90
       50
176
     1
 90
        3
176
     1
 62
     5
420
      255
176
     1
290
     0
176
     1
 90
       50
176
     1
 90
       50
176
     1
 90
       50
176
     1
290
     0
176
     1
 90
       50
176
     1
 62
   256
176
     0
 40
1.0
176
     0
 90
        2
176
     1
  1
strokes_ogs.tif
176
     1
290
     0
176
     1
 40
1.0
176
     1
 40
1.0
176
     1
  0
VISUALSTYLE
  5
3A
102
{ACAD_REACTORS
330
2A
102
}
330
2A
100
AcDbVisualStyle
  2
ColorChange
 70
    16
177
     3
291
     1
 70
    58
 90
        2
176
     1
 90
        2
176
     1
 90
        3
176
     1
 90
        0
176
     1
 40
0.6
176
     1
 40
30.0
176
     1
 62
     8
420
  8421504
176
     1
 90
        1
176
     1
 90
        4
176
     1
 62
     7
176
     1
 62
   257
176
     1
 90
        1
176
     1
 90
        1
176
     1
 40
1.0
176
     1
 90
        8
176
     1
 62
     8
420
  8421504
176
     1
 40
1.0
176
     1
 90
        1
176
     1
 90
        6
176
     1
 90
        2
176
     1
 62
     7
176
     1
 90
        5
176
     1
 90
        0
176
     1
 90
        0
176
     1
290
     0
176
     1
 90
        1
176
     1
 40
0.0
176
     1
 90
        0
176
     1
290
     0
176
     1
290
     1
176
     1
290
     1
176
     1
290
     0
176
     1
290
     0
176
     1
290
     0
176
     1
290
     0
176
     1
290
     0
176
     1
290
     0
176
     1
 90
       50
176
     1
 40
0.0
176
     1
 40
1.0
176
     1
 90
        0
176
     1
 62
    18
420
        0
176
     1
 90
       50
176
     1
 90
        3
176
     1
 62
     5
420
      255
176
     1
290
     0
176
     1
 90
       50
176
     1
 90
       50
176
     1
 90
       50
176
     1
290
     0
176
     1
 90
       50
176
     1
 62
   256
176
     0
 40
1.0
176
     0
 90
        2
176
     1
  1
strokes_ogs.tif
176
     1
290
     0
176
     1
 40
1.0
176
     1
 40
1.0
176
     1
  0
VISUALSTYLE
  5
34
102
{ACAD_REACTORS
330
2A
102
}
330
2A
100
AcDbVisualStyle
  2
Conceptual
 70
     9
177
     3
291
     0
 70
    58
 90
        3
176
     1
 90
        2
176
     1
 90
        0
176
     1
 90
        0
176
     1
 40
0.6
176
     1
 40
30.0
176
     1
 62
     7
420
 16777215
176
     1
 90
        2
176
     1
 90
        2
176
     1
 62
     7
176
     1
 62
   257
176
     1
 90
        1
176
     1
 90
        1
176
     1
 40
179.0
176
     1
 90
        8
176
     1
 62
     7
176
     1
 40
1.0
176
     1
 90
        1
176
     1
 90
        6
176
     1
 90
        2
176
     1
 62
     7
176
     1
 90
        3
176
     1
 90
        0
176
     1
 90
        0
176
     1
290
     0
176
     1
 90
        1
176
     1
 40
0.0
176
     1
 90
        0
176
     1
290
     0
176
     1
290
     1
176
     1
290
     1
176
     1
290
     0
176
     1
290
     0
176
     1
290
     0
176
     1
290
     0
176
     1
290
     0
176
     1
290
     0
176
     1
 90
       50
176
     1
 40
0.0
176
     1
 40
1.0
176
     1
 90
        0
176
     1
 62
    18
420
        0
176
     1
 90
       50
176
     1
 90
        3
176
     1
 62
     5
420
      255
176
     1
290
     0
176
     1
 90
       50
176
     1
 90
       50
176
     1
 90
       50
176
     1
290
     0
176
     1
 90
       50
176
     1
 62
   256
176
     0
 40
1.0
176
     0
 90
        2
176
     1
  1
strokes_ogs.tif
176
     1
290
     0
176
     1
 40
1.0
176
     1
 40
1.0
176
     1
  0
VISUALSTYLE
  5
35
102
{ACAD_REACTORS
330
2A
102
}
330
2A
100
AcDbVisualStyle
  2
Dim
 70
    11
177
     3
291
     1
 70
    58
 90
        2
176
     1
 90
        2
176
     1
 90
        0
176
     1
 90
        0
176
     1
 40
0.6
176
     1
 40
30.0
176
     1
 62
     7
420
 16777215
176
     1
 90
        1
176
     1
 90
        4
176
     1
 62
     7
176
     1
 62
   257
176
     1
 90
        1
176
     1
 90
        1
176
     1
 40
1.0
176
     1
 90
        8
176
     1
 62
     7
176
     1
 40
1.0
176
     1
 90
        1
176
     1
 90
        6
176
     1
 90
        2
176
     1
 62
     7
176
     1
 90
        5
176
     1
 90
        0
176
     1
 90
        0
176
     1
290
     0
176
     1
 90
        1
176
     1
 40
-50.0
176
     1
 90
        0
176
     1
290
     0
176
     1
290
     1
176
     1
290
     1
176
     1
290
     0
176
     1
290
     0
176
     1
290
     0
176
     1
290
     0
176
     1
290
     0
176
     1
290
     0
176
     1
 90
       50
176
     1
 40
0.0
176
     1
 40
1.0
176
     1
 90
        0
176
     1
 62
    18
420
        0
176
     1
 90
       50
176
     1
 90
        3
176
     1
 62
     5
420
      255
176
     1
290
     0
176
     1
 90
       50
176
     1
 90
       50
176
     1
 90
       50
176
     1
290
     0
176
     1
 90
       50
176
     1
 62
   256
176
     0
 40
1.0
176
     0
 90
        2
176
     1
  1
strokes_ogs.tif
176
     1
290
     0
176
     1
 40
1.0
176
     1
 40
1.0
176
     1
  0
VISUALSTYLE
  5
3D
102
{ACAD_REACTORS
330
2A
102
}
330
2A
100
AcDbVisualStyle
  2
EdgeColorOff
 70
    22
177
     3
291
     1
 70
    58
 90
        2
176
     0
 90
        2
176
     0
 90
        0
176
     0
 90
        0
176
     0
 40
0.6
176
     0
 40
30.0
176
     0
 62
     7
420
 16777215
176
     0
 90
        1
176
     0
 90
        4
176
     0
 62
     7
176
     0
 62
   257
176
     0
 90
        1
176
     0
 90
        1
176
     0
 40
1.0
176
     0
 90
        8
176
     2
 62
     7
176
     0
 40
1.0
176
     0
 90
        1
176
     0
 90
        6
176
     0
 90
        2
176
     0
 62
     7
176
     0
 90
        5
176
     0
 90
        0
176
     0
 90
        0
176
     0
290
     0
176
     0
 90
        1
176
     0
 40
0.0
176
     0
 90
        0
176
     0
290
     0
176
     0
290
     1
176
     0
290
     1
176
     0
290
     0
176
     0
290
     0
176
     0
290
     0
176
     0
290
     0
176
     0
290
     0
176
     0
290
     0
176
     0
 90
       50
176
     0
 40
0.0
176
     0
 40
1.0
176
     0
 90
        0
176
     0
 62
    18
420
        0
176
     0
 90
       50
176
     0
 90
        3
176
     0
 62
     5
420
      255
176
     0
290
     0
176
     0
 90
       50
176
     0
 90
       50
176
     0
 90
       50
176
     0
290
     0
176
     0
 90
       50
176
     0
 62
   256
176
     0
 40
1.0
176
     0
 90
        2
176
     0
  1
strokes_ogs.tif
176
     0
290
     0
176
     0
 40
1.0
176
     0
 40
1.0
176
     0
  0
VISUALSTYLE
  5
39
102
{ACAD_REACTORS
330
2A
102
}
330
2A
100
AcDbVisualStyle
  2
Facepattern
 70
    15
177
     3
291
     1
 70
    58
 90
        2
176
     1
 90
        2
176
     1
 90
        0
176
     1
 90
        0
176
     1
 40
0.6
176
     1
 40
30.0
176
     1
 62
     7
420
 16777215
176
     1
 90
        1
176
     1
 90
        4
176
     1
 62
     7
176
     1
 62
   257
176
     1
 90
        1
176
     1
 90
        1
176
     1
 40
1.0
176
     1
 90
        8
176
     1
 62
     7
176
     1
 40
1.0
176
     1
 90
        1
176
     1
 90
        6
176
     1
 90
        2
176
     1
 62
     7
176
     1
 90
        5
176
     1
 90
        0
176
     1
 90
        0
176
     1
290
     0
176
     1
 90
        1
176
     1
 40
0.0
176
     1
 90
        0
176
     1
290
     0
176
     1
290
     1
176
     1
290
     1
176
     1
290
     0
176
     1
290
     0
176
     1
290
     0
176
     1
290
     0
176
     1
290
     0
176
     1
290
     0
176
     1
 90
       50
176
     1
 40
0.0
176
     1
 40
1.0
176
     1
 90
        0
176
     1
 62
    18
420
        0
176
     1
 90
       50
176
     1
 90
        3
176
     1
 62
     5
420
      255
176
     1
290
     0
176
     1
 90
       50
176
     1
 90
       50
176
     1
 90
       50
176
     1
290
     0
176
     1
 90
       50
176
     1
 62
   256
176
     0
 40
1.0
176
     0
 90
        2
176
     1
  1
strokes_ogs.tif
176
     1
290
     0
176
     1
 40
1.0
176
     1
 40
1.0
176
     1
  0
VISUALSTYLE
  5
2B
102
{ACAD_REACTORS
330
2A
102
}
330
2A
100
AcDbVisualStyle
  2
Flat
 70
     0
177
     3
291
     1
 70
    58
 90
        2
176
     1
 90
        1
176
     1
 90
        1
176
     1
 90
        2
176
     1
 40
0.6
176
     1
 40
30.0
176
     1
 62
     7
420
 16777215
176
     1
 90
        0
176
     1
 90
        0
176
     1
 62
     7
176
     1
 62
   257
176
     1
 90
        1
176
     1
 90
        1
176
     1
 40
1.0
176
     1
 90
        8
176
     1
 62
     7
176
     1
 40
1.0
176
     1
 90
        1
176
     1
 90
        6
176
     1
 90
        2
176
     1
 62
     7
176
     1
 90
        5
176
     1
 90
        0
176
     1
 90
        0
176
     1
290
     0
176
     1
 90
       13
176
     1
 40
0.0
176
     1
 90
        0
176
     1
290
     0
176
     1
290
     1
176
     1
290
     1
176
     1
290
     0
176
     1
290
     0
176
     1
290
     0
176
     1
290
     0
176
     1
290
     0
176
     1
290
     0
176
     1
 90
       50
176
     1
 40
0.0
176
     1
 40
1.0
176
     1
 90
        0
176
     1
 62
    18
420
        0
176
     1
 90
       50
176
     1
 90
        3
176
     1
 62
     5
420
      255
176
     1
290
     0
176
     1
 90
       50
176
     1
 90
       50
176
     1
 90
       50
176
     1
290
     0
176
     1
 90
       50
176
     1
 62
   256
176
     0
 40
1.0
176
     0
 90
        2
176
     1
  1
strokes_ogs.tif
176
     1
290
     0
176
     1
 40
1.0
176
     1
 40
1.0
176
     1
  0
VISUALSTYLE
  5
2C
102
{ACAD_REACTORS
330
2A
102
}
330
2A
100
AcDbVisualStyle
  2
FlatWithEdges
 70
     1
177
     3
291
     1
 70
    58
 90
        2
176
     1
 90
        1
176
     1
 90
        1
176
     1
 90
        2
176
     1
 40
0.6
176
     1
 40
30.0
176
     1
 62
     7
420
 16777215
176
     1
 90
        1
176
     1
 90
        0
176
     1
 62
     7
176
     1
 62
   257
176
     1
 90
        1
176
     1
 90
        1
176
     1
 40
1.0
176
     1
 90
        0
176
     1
 62
   257
176
     1
 40
1.0
176
     1
 90
        1
176
     1
 90
        6
176
     1
 90
        2
176
     1
 62
     7
176
     1
 90
        5
176
     1
 90
        0
176
     1
 90
        0
176
     1
290
     0
176
     1
 90
       13
176
     1
 40
0.0
176
     1
 90
        0
176
     1
290
     0
176
     1
290
     1
176
     1
290
     1
176
     1
290
     0
176
     1
290
     0
176
     1
290
     0
176
     1
290
     0
176
     1
290
     0
176
     1
290
     0
176
     1
 90
       50
176
     1
 40
0.0
176
     1
 40
1.0
176
     1
 90
        0
176
     1
 62
    18
420
        0
176
     1
 90
       50
176
     1
 90
        3
176
     1
 62
     5
420
      255
176
     1
290
     0
176
     1
 90
       50
176
     1
 90
       50
176
     1
 90
       50
176
     1
290
     0
176
     1
 90
       50
176
     1
 62
   256
176
     0
 40
1.0
176
     0
 90
        2
176
     1
  1
strokes_ogs.tif
176
     1
290
     0
176
     1
 40
1.0
176
     1
 40
1.0
176
     1
  0
VISUALSTYLE
  5
2D
102
{ACAD_REACTORS
330
2A
102
}
330
2A
100
AcDbVisualStyle
  2
Gouraud
 70
     2
177
     3
291
     1
 70
    58
 90
        2
176
     1
 90
        2
176
     1
 90
        1
176
     1
 90
        2
176
     1
 40
0.6
176
     1
 40
30.0
176
     1
 62
     7
420
 16777215
176
     1
 90
        0
176
     1
 90
        0
176
     1
 62
     7
176
     1
 62
   257
176
     1
 90
        1
176
     1
 90
        1
176
     1
 40
1.0
176
     1
 90
        0
176
     1
 62
     7
176
     1
 40
1.0
176
     1
 90
        1
176
     1
 90
        6
176
     1
 90
        2
176
     1
 62
     7
176
     1
 90
        5
176
     1
 90
        0
176
     1
 90
        0
176
     1
290
     0
176
     1
 90
       13
176
     1
 40
0.0
176
     1
 90
        0
176
     1
290
     0
176
     1
290
     1
176
     1
290
     1
176
     1
290
     0
176
     1
290
     0
176
     1
290
     0
176
     1
290
     0
176
     1
290
     0
176
     1
290
     0
176
     1
 90
       50
176
     1
 40
0.0
176
     1
 40
1.0
176
     1
 90
        0
176
     1
 62
    18
420
        0
176
     1
 90
       50
176
     1
 90
        3
176
     1
 62
     5
420
      255
176
     1
290
     0
176
     1
 90
       50
176
     1
 90
       50
176
     1
 90
       50
176
     1
290
     0
176
     1
 90
       50
176
     1
 62
   256
176
     0
 40
1.0
176
     0
 90
        2
176
     1
  1
strokes_ogs.tif
176
     1
290
     0
176
     1
 40
1.0
176
     1
 40
1.0
176
     1
  0
VISUALSTYLE
  5
2E
102
{ACAD_REACTORS
330
2A
102
}
330
2A
100
AcDbVisualStyle
  2
GouraudWithEdges
 70
     3
177
     3
291
     1
 70
    58
 90
        2
176
     1
 90
        2
176
     1
 90
        1
176
     1
 90
        2
176
     1
 40
0.6
176
     1
 40
30.0
176
     1
 62
     7
420
 16777215
176
     1
 90
        1
176
     1
 90
        0
176
     1
 62
     7
176
     1
 62
   257
176
     1
 90
        1
176
     1
 90
        1
176
     1
 40
1.0
176
     1
 90
        0
176
     1
 62
   257
176
     1
 40
1.0
176
     1
 90
        1
176
     1
 90
        6
176
     1
 90
        2
176
     1
 62
     7
176
     1
 90
        5
176
     1
 90
        0
176
     1
 90
        0
176
     1
290
     0
176
     1
 90
       13
176
     1
 40
0.0
176
     1
 90
        0
176
     1
290
     0
176
     1
290
     1
176
     1
290
     1
176
     1
290
     0
176
     1
290
     0
176
     1
290
     0
176
     1
290
     0
176
     1
290
     0
176
     1
290
     0
176
     1
 90
       50
176
     1
 40
0.0
176
     1
 40
1.0
176
     1
 90
        0
176
     1
 62
    18
420
        0
176
     1
 90
       50
176
     1
 90
        3
176
     1
 62
     5
420
      255
176
     1
290
     0
176
     1
 90
       50
176
     1
 90
       50
176
     1
 90
       50
176
     1
290
     0
176
     1
 90
       50
176
     1
 62
   256
176
     0
 40
1.0
176
     0
 90
        2
176
     1
  1
strokes_ogs.tif
176
     1
290
     0
176
     1
 40
1.0
176
     1
 40
1.0
176
     1
  0
VISUALSTYLE
  5
31
102
{ACAD_REACTORS
330
2A
102
}
330
2A
100
AcDbVisualStyle
  2
Hidden
 70
     6
177
     3
291
     0
 70
    58
 90
        1
176
     1
 90
        2
176
     1
 90
        2
176
     1
 90
        0
176
     1
 40
0.6
176
     1
 40
30.0
176
     1
 62
     7
420
 16777215
176
     1
 90
        2
176
     1
 90
        2
176
     1
 62
     7
176
     1
 62
   257
176
     1
 90
        2
176
     1
 90
        1
176
     1
 40
40.0
176
     1
 90
        0
176
     1
 62
   257
176
     1
 40
1.0
176
     1
 90
        1
176
     1
 90
        6
176
     1
 90
        2
176
     1
 62
     7
176
     1
 90
        3
176
     1
 90
        0
176
     1
 90
        0
176
     1
290
     0
176
     1
 90
        1
176
     1
 40
0.0
176
     1
 90
        0
176
     1
290
     0
176
     1
290
     1
176
     1
290
     1
176
     1
290
     0
176
     1
290
     0
176
     1
290
     0
176
     1
290
     0
176
     1
290
     0
176
     1
290
     0
176
     1
 90
       50
176
     1
 40
0.0
176
     1
 40
1.0
176
     1
 90
        0
176
     1
 62
    18
420
        0
176
     1
 90
       50
176
     1
 90
        3
176
     1
 62
     5
420
      255
176
     1
290
     0
176
     1
 90
       50
176
     1
 90
       50
176
     1
 90
       50
176
     1
290
     0
176
     1
 90
       50
176
     1
 62
   256
176
     0
 40
1.0
176
     0
 90
        2
176
     1
  1
strokes_ogs.tif
176
     1
290
     0
176
     1
 40
1.0
176
     1
 40
1.0
176
     1
  0
VISUALSTYLE
  5
3B
102
{ACAD_REACTORS
330
2A
102
}
330
2A
100
AcDbVisualStyle
  2
JitterOff
 70
    20
177
     3
291
     1
 70
    58
 90
        2
176
     0
 90
        2
176
     0
 90
        0
176
     0
 90
        0
176
     0
 40
0.6
176
     0
 40
30.0
176
     0
 62
     7
420
 16777215
176
     0
 90
        1
176
     0
 90
        4
176
     0
 62
     7
176
     0
 62
   257
176
     0
 90
        1
176
     0
 90
        1
176
     0
 40
1.0
176
     0
 90
       10
176
     2
 62
     7
176
     0
 40
1.0
176
     0
 90
        1
176
     0
 90
        6
176
     0
 90
        2
176
     0
 62
     7
176
     0
 90
        5
176
     0
 90
        0
176
     0
 90
        0
176
     0
290
     0
176
     0
 90
        1
176
     0
 40
0.0
176
     0
 90
        0
176
     0
290
     0
176
     0
290
     1
176
     0
290
     1
176
     0
290
     0
176
     0
290
     0
176
     0
290
     0
176
     0
290
     0
176
     0
290
     0
176
     0
290
     0
176
     0
 90
       50
176
     0
 40
0.0
176
     0
 40
1.0
176
     0
 90
        0
176
     0
 62
    18
420
        0
176
     0
 90
       50
176
     0
 90
        3
176
     0
 62
     5
420
      255
176
     0
290
     0
176
     0
 90
       50
176
     0
 90
       50
176
     0
 90
       50
176
     0
290
     0
176
     0
 90
       50
176
     0
 62
   256
176
     0
 40
1.0
176
     0
 90
        2
176
     0
  1
strokes_ogs.tif
176
     0
290
     0
176
     0
 40
1.0
176
     0
 40
1.0
176
     0
  0
VISUALSTYLE
  5
38
102
{ACAD_REACTORS
330
2A
102
}
330
2A
100
AcDbVisualStyle
  2
Linepattern
 70
    14
177
     3
291
     1
 70
    58
 90
        2
176
     1
 90
        2
176
     1
 90
        0
176
     1
 90
        0
176
     1
 40
0.6
176
     1
 40
30.0
176
     1
 62
     7
420
 16777215
176
     1
 90
        1
176
     1
 90
        4
176
     1
 62
     7
176
     1
 62
   257
176
     1
 90
        7
176
     1
 90
        7
176
     1
 40
1.0
176
     1
 90
        8
176
     1
 62
     7
176
     1
 40
1.0
176
     1
 90
        1
176
     1
 90
        6
176
     1
 90
        2
176
     1
 62
     7
176
     1
 90
        5
176
     1
 90
        0
176
     1
 90
        0
176
     1
290
     0
176
     1
 90
        1
176
     1
 40
0.0
176
     1
 90
        0
176
     1
290
     0
176
     1
290
     1
176
     1
290
     1
176
     1
290
     0
176
     1
290
     0
176
     1
290
     0
176
     1
290
     0
176
     1
290
     0
176
     1
290
     0
176
     1
 90
       50
176
     1
 40
0.0
176
     1
 40
1.0
176
     1
 90
        0
176
     1
 62
    18
420
        0
176
     1
 90
       50
176
     1
 90
        3
176
     1
 62
     5
420
      255
176
     1
290
     0
176
     1
 90
       50
176
     1
 90
       50
176
     1
 90
       50
176
     1
290
     0
176
     1
 90
       50
176
     1
 62
   256
176
     0
 40
1.0
176
     0
 90
        2
176
     1
  1
strokes_ogs.tif
176
     1
290
     0
176
     1
 40
1.0
176
     1
 40
1.0
176
     1
  0
VISUALSTYLE
  5
3C
102
{ACAD_REACTORS
330
2A
102
}
330
2A
100
AcDbVisualStyle
  2
OverhangOff
 70
    21
177
     3
291
     1
 70
    58
 90
        2
176
     0
 90
        2
176
     0
 90
        0
176
     0
 90
        0
176
     0
 40
0.6
176
     0
 40
30.0
176
     0
 62
     7
420
 16777215
176
     0
 90
        1
176
     0
 90
        4
176
     0
 62
     7
176
     0
 62
   257
176
     0
 90
        1
176
     0
 90
        1
176
     0
 40
1.0
176
     0
 90
        9
176
     2
 62
     7
176
     0
 40
1.0
176
     0
 90
        1
176
     0
 90
        6
176
     0
 90
        2
176
     0
 62
     7
176
     0
 90
        5
176
     0
 90
        0
176
     0
 90
        0
176
     0
290
     0
176
     0
 90
        1
176
     0
 40
0.0
176
     0
 90
        0
176
     0
290
     0
176
     0
290
     1
176
     0
290
     1
176
     0
290
     0
176
     0
290
     0
176
     0
290
     0
176
     0
290
     0
176
     0
290
     0
176
     0
290
     0
176
     0
 90
       50
176
     0
 40
0.0
176
     0
 40
1.0
176
     0
 90
        0
176
     0
 62
    18
420
        0
176
     0
 90
       50
176
     0
 90
        3
176
     0
 62
     5
420
      255
176
     0
290
     0
176
     0
 90
       50
176
     0
 90
       50
176
     0
 90
       50
176
     0
290
     0
176
     0
 90
       50
176
     0
 62
   256
176
     0
 40
1.0
176
     0
 90
        2
176
     0
  1
strokes_ogs.tif
176
     0
290
     0
176
     0
 40
1.0
176
     0
 40
1.0
176
     0
  0
VISUALSTYLE
  5
33
102
{ACAD_REACTORS
330
2A
102
}
330
2A
100
AcDbVisualStyle
  2
Realistic
 70
     8
177
     3
291
     0
 70
    58
 90
        2
176
     1
 90
        3
176
     1
 90
        0
176
     1
 90
        2
176
     1
 40
0.6
176
     1
 40
30.0
176
     1
 62
     7
420
 16777215
176
     1
 90
        0
176
     1
 90
        0
176
     1
 62
     7
176
     1
 62
   257
176
     1
 90
        1
176
     1
 90
        1
176
     1
 40
1.0
176
     1
 90
        8
176
     1
 62
   257
176
     1
 40
1.0
176
     1
 90
        1
176
     1
 90
        6
176
     1
 90
        2
176
     1
 62
     7
176
     1
 90
        3
176
     1
 90
        0
176
     1
 90
        0
176
     1
290
     0
176
     1
 90
       13
176
     1
 40
0.0
176
     1
 90
        0
176
     1
290
     0
176
     1
290
     1
176
     1
290
     1
176
     1
290
     0
176
     1
290
     0
176
     1
290
     0
176
     1
290
     0
176
     1
290
     0
176
     1
290
     0
176
     1
 90
       50
176
     1
 40
0.0
176
     1
 40
1.0
176
     1
 90
        0
176
     1
 62
    18
420
        0
176
     1
 90
       50
176
     1
 90
        3
176
     1
 62
     5
420
      255
176
     1
290
     0
176
     1
 90
       50
176
     1
 90
       50
176
     1
 90
       50
176
     1
290
     0
176
     1
 90
       50
176
     1
 62
   256
176
     0
 40
1.0
176
     0
 90
        2
176
     1
  1
strokes_ogs.tif
176
     1
290
     0
176
     1
 40
1.0
176
     1
 40
1.0
176
     1
  0
VISUALSTYLE
  5
42
102
{ACAD_REACTORS
330
2A
102
}
330
2A
100
AcDbVisualStyle
  2
Shaded
 70
    27
177
     3
291
     0
 70
    58
 90
        2
176
     1
 90
        2
176
     1
 90
        1
176
     1
 90
        2
176
     1
 40
0.6
176
     1
 40
30.0
176
     1
 62
     7
420
 16777215
176
     1
 90
        0
176
     1
 90
        4
176
     1
 62
     7
176
     1
 62
   257
176
     1
 90
        1
176
     1
 90
        1
176
     1
 40
1.0
176
     1
 90
        8
176
     1
 62
   257
176
     1
 40
1.0
176
     1
 90
        1
176
     1
 90
        6
176
     1
 90
        2
176
     1
 62
     8
420
  7895160
176
     1
 90
        3
176
     1
 90
        0
176
     1
 90
        0
176
     1
290
     0
176
     1
 90
        5
176
     1
 40
0.0
176
     1
 90
        0
176
     1
290
     0
176
     1
290
     1
176
     1
290
     1
176
     1
290
     0
176
     1
290
     0
176
     1
290
     0
176
     1
290
     0
176
     1
290
     0
176
     1
290
     0
176
     1
 90
       50
176
     1
 40
0.0
176
     1
 40
1.0
176
     1
 90
        0
176
     1
 62
    18
420
        0
176
     1
 90
       50
176
     1
 90
        3
176
     1
 62
     5
420
      255
176
     1
290
     0
176
     1
 90
       50
176
     1
 90
       50
176
     1
 90
       50
176
     1
290
     0
176
     1
 90
       50
176
     1
 62
   256
176
     0
 40
1.0
176
     0
 90
        2
176
     1
  1
strokes_ogs.tif
176
     1
290
     0
176
     1
 40
1.0
176
     1
 40
1.0
176
     1
  0
VISUALSTYLE
  5
41
102
{ACAD_REACTORS
330
2A
102
}
330
2A
100
AcDbVisualStyle
  2
Shaded with edges
 70
    26
177
     3
291
     0
 70
    58
 90
        2
176
     1
 90
        2
176
     1
 90
        1
176
     1
 90
        2
176
     1
 40
0.6
176
     1
 40
30.0
176
     1
 62
     7
420
 16777215
176
     1
 90
        1
176
     1
 90
        2
176
     1
 62
     7
176
     1
 62
   257
176
     1
 90
        2
176
     1
 90
        1
176
     1
 40
1.0
176
     1
 90
        8
176
     1
 62
   257
176
     1
 40
1.0
176
     1
 90
        1
176
     1
 90
        6
176
     1
 90
        2
176
     1
 62
     7
176
     1
 90
        3
176
     1
 90
        0
176
     1
 90
        0
176
     1
290
     0
176
     1
 90
        5
176
     1
 40
0.0
176
     1
 90
        0
176
     1
290
     0
176
     1
290
     1
176
     1
290
     1
176
     1
290
     0
176
     1
290
     0
176
     1
290
     0
176
     1
290
     0
176
     1
290
     0
176
     1
290
     0
176
     1
 90
       50
176
     1
 40
0.0
176
     1
 40
1.0
176
     1
 90
        0
176
     1
 62
    18
420
        0
176
     1
 90
       50
176
     1
 90
        3
176
     1
 62
     5
420
      255
176
     1
290
     0
176
     1
 90
       50
176
     1
 90
       50
176
     1
 90
       50
176
     1
290
     0
176
     1
 90
       50
176
     1
 62
   256
176
     0
 40
1.0
176
     0
 90
        2
176
     1
  1
strokes_ogs.tif
176
     1
290
     0
176
     1
 40
1.0
176
     1
 40
1.0
176
     1
  0
VISUALSTYLE
  5
3E
102
{ACAD_REACTORS
330
2A
102
}
330
2A
100
AcDbVisualStyle
  2
Shades of Gray
 70
    23
177
     3
291
     0
 70
    58
 90
        2
176
     1
 90
        2
176
     1
 90
        3
176
     1
 90
        0
176
     1
 40
0.6
176
     1
 40
30.0
176
     1
 62
     7
420
 16777215
176
     1
 90
        2
176
     1
 90
        2
176
     1
 62
     7
176
     1
 62
     7
176
     1
 90
        1
176
     1
 90
        1
176
     1
 40
40.0
176
     1
 90
        8
176
     1
 62
     7
176
     1
 40
1.0
176
     1
 90
        1
176
     1
 90
        6
176
     1
 90
        2
176
     1
 62
     7
176
     1
 90
        3
176
     1
 90
        0
176
     1
 90
        0
176
     1
290
     0
176
     1
 90
        1
176
     1
 40
0.0
176
     1
 90
        0
176
     1
290
     0
176
     1
290
     1
176
     1
290
     1
176
     1
290
     0
176
     1
290
     0
176
     1
290
     0
176
     1
290
     0
176
     1
290
     0
176
     1
290
     0
176
     1
 90
       50
176
     1
 40
0.0
176
     1
 40
1.0
176
     1
 90
        0
176
     1
 62
    18
420
        0
176
     1
 90
       50
176
     1
 90
        3
176
     1
 62
     5
420
      255
176
     1
290
     0
176
     1
 90
       50
176
     1
 90
       50
176
     1
 90
       50
176
     1
290
     0
176
     1
 90
       50
176
     1
 62
   256
176
     0
 40
1.0
176
     0
 90
        2
176
     1
  1
strokes_ogs.tif
176
     1
290
     0
176
     1
 40
1.0
176
     1
 40
1.0
176
     1
  0
VISUALSTYLE
  5
3F
102
{ACAD_REACTORS
330
2A
102
}
330
2A
100
AcDbVisualStyle
  2
Sketchy
 70
    24
177
     3
291
     0
 70
    58
 90
        1
176
     1
 90
        2
176
     1
 90
        2
176
     1
 90
        0
176
     1
 40
0.6
176
     1
 40
30.0
176
     1
 62
     7
420
 16777215
176
     1
 90
        2
176
     1
 90
        2
176
     1
 62
     7
176
     1
 62
     7
176
     1
 90
        1
176
     1
 90
        1
176
     1
 40
40.0
176
     1
 90
       11
176
     1
 62
     7
176
     1
 40
1.0
176
     1
 90
        1
176
     1
 90
        6
176
     1
 90
        2
176
     1
 62
     7
176
     1
 90
        6
176
     1
 90
        0
176
     1
 90
        0
176
     1
290
     0
176
     1
 90
        1
176
     1
 40
0.0
176
     1
 90
        0
176
     1
290
     0
176
     1
290
     1
176
     1
290
     1
176
     1
290
     0
176
     1
290
     0
176
     1
290
     0
176
     1
290
     0
176
     1
290
     0
176
     1
290
     0
176
     1
 90
       50
176
     1
 40
0.0
176
     1
 40
1.0
176
     1
 90
        0
176
     1
 62
    18
420
        0
176
     1
 90
       50
176
     1
 90
        3
176
     1
 62
     5
420
      255
176
     1
290
     0
176
     1
 90
       50
176
     1
 90
       50
176
     1
 90
       50
176
     1
290
     0
176
     1
 90
       50
176
     1
 62
   256
176
     0
 40
1.0
176
     0
 90
        2
176
     1
  1
strokes_ogs.tif
176
     1
290
     0
176
     1
 40
1.0
176
     1
 40
1.0
176
     1
  0
VISUALSTYLE
  5
37
102
{ACAD_REACTORS
330
2A
102
}
330
2A
100
AcDbVisualStyle
  2
Thicken
 70
    13
177
     3
291
     1
 70
    58
 90
        2
176
     1
 90
        2
176
     1
 90
        0
176
     1
 90
        0
176
     1
 40
0.6
176
     1
 40
30.0
176
     1
 62
     7
420
 16777215
176
     1
 90
        1
176
     1
 90
        4
176
     1
 62
     7
176
     1
 62
   257
176
     1
 90
        1
176
     1
 90
        1
176
     1
 40
1.0
176
     1
 90
       12
176
     1
 62
     7
176
     1
 40
1.0
176
     1
 90
        1
176
     1
 90
        6
176
     1
 90
        2
176
     1
 62
     7
176
     1
 90
        5
176
     1
 90
        0
176
     1
 90
        0
176
     1
290
     0
176
     1
 90
        1
176
     1
 40
0.0
176
     1
 90
        0
176
     1
290
     0
176
     1
290
     1
176
     1
290
     1
176
     1
290
     0
176
     1
290
     0
176
     1
290
     0
176
     1
290
     0
176
     1
290
     0
176
     1
290
     0
176
     1
 90
       50
176
     1
 40
0.0
176
     1
 40
1.0
176
     1
 90
        0
176
     1
 62
    18
420
        0
176
     1
 90
       50
176
     1
 90
        3
176
     1
 62
     5
420
      255
176
     1
290
     0
176
     1
 90
       50
176
     1
 90
       50
176
     1
 90
       50
176
     1
290
     0
176
     1
 90
       50
176
     1
 62
   256
176
     0
 40
1.0
176
     0
 90
        2
176
     1
  1
strokes_ogs.tif
176
     1
290
     0
176
     1
 40
1.0
176
     1
 40
1.0
176
     1
  0
VISUALSTYLE
  5
30
102
{ACAD_REACTORS
330
2A
102
}
330
2A
100
AcDbVisualStyle
  2
Wireframe
 70
     5
177
     3
291
     0
 70
    58
 90
        0
176
     1
 90
        2
176
     1
 90
        0
176
     1
 90
        0
176
     1
 40
0.6
176
     1
 40
30.0
176
     1
 62
     7
420
 16777215
176
     1
 90
        1
176
     1
 90
        4
176
     1
 62
     7
176
     1
 62
   257
176
     1
 90
        1
176
     1
 90
        1
176
     1
 40
1.0
176
     1
 90
        0
176
     1
 62
   257
176
     1
 40
1.0
176
     1
 90
        1
176
     1
 90
        6
176
     1
 90
        2
176
     1
 62
     7
176
     1
 90
        3
176
     1
 90
        0
176
     1
 90
        0
176
     1
290
     0
176
     1
 90
        1
176
     1
 40
0.0
176
     1
 90
        0
176
     1
290
     0
176
     1
290
     1
176
     1
290
     1
176
     1
290
     0
176
     1
290
     0
176
     1
290
     0
176
     1
290
     0
176
     1
290
     0
176
     1
290
     0
176
     1
 90
       50
176
     1
 40
0.0
176
     1
 40
1.0
176
     1
 90
        0
176
     1
 62
    18
420
        0
176
     1
 90
       50
176
     1
 90
        3
176
     1
 62
     5
420
      255
176
     1
290
     0
176
     1
 90
       50
176
     1
 90
       50
176
     1
 90
       50
176
     1
290
     0
176
     1
 90
       50
176
     1
 62
   256
176
     0
 40
1.0
176
     0
 90
        2
176
     1
  1
strokes_ogs.tif
176
     1
290
     0
176
     1
 40
1.0
176
     1
 40
1.0
176
     1
  0
VISUALSTYLE
  5
40
102
{ACAD_REACTORS
330
2A
102
}
330
2A
100
AcDbVisualStyle
  2
X-Ray
 70
    25
177
     3
291
     0
 70
    58
 90
        2
176
     1
 90
        2
176
     1
 90
        1
176
     1
 90
        1
176
     1
 40
0.5
176
     1
 40
30.0
176
     1
 62
     7
420
 16777215
176
     1
 90
        1
176
     1
 90
        0
176
     1
 62
     7
176
     1
 62
   257
176
     1
 90
        1
176
     1
 90
        1
176
     1
 40
1.0
176
     1
 90
        8
176
     1
 62
     7
176
     1
 40
1.0
176
     1
 90
        1
176
     1
 90
        6
176
     1
 90
        2
176
     1
 62
     7
176
     1
 90
        3
176
     1
 90
        0
176
     1
 90
        0
176
     1
290
     0
176
     1
 90
       13
176
     1
 40
0.0
176
     1
 90
        0
176
     1
290
     0
176
     1
290
     1
176
     1
290
     1
176
     1
290
     0
176
     1
290
     0
176
     1
290
     0
176
     1
290
     0
176
     1
290
     0
176
     1
290
     0
176
     1
 90
       50
176
     1
 40
0.0
176
     1
 40
1.0
176
     1
 90
        0
176
     1
 62
    18
420
        0
176
     1
 90
       50
176
     1
 90
        3
176
     1
 62
     5
420
      255
176
     1
290
     0
176
     1
 90
       50
176
     1
 90
       50
176
     1
 90
       50
176
     1
290
     0
176
     1
 90
       50
176
     1
 62
   256
176
     0
 40
1.0
176
     0
 90
        2
176
     1
  1
strokes_ogs.tif
176
     1
290
     0
176
     1
 40
1.0
176
     1
 40
1.0
176
     1
  0
DICTIONARYVAR
  5
104
102
{ACAD_REACTORS
330
103
102
}
330
103
100
DictionaryVariables
280
     0
  1
1:1
  0
DICTIONARYVAR
  5
109
102
{ACAD_REACTORS
330
103
102
}
330
103
100
DictionaryVariables
280
     0
  1
3.500000
  0
DICTIONARYVAR
  5
10A
102
{ACAD_REACTORS
330
103
102
}
330
103
100
DictionaryVariables
280
     0
  1
acadiso.lin
  0
DICTIONARYVAR
  5
106
102
{ACAD_REACTORS
330
103
102
}
330
103
100
DictionaryVariables
280
     0
  1
STANDARD
  0
DICTIONARYVAR
  5
105
102
{ACAD_REACTORS
330
103
102
}
330
103
100
DictionaryVariables
280
     0
  1
STANDARD
  0
DICTIONARYVAR
  5
11E
102
{ACAD_REACTORS
330
103
102
}
330
103
100
DictionaryVariables
280
     0
  1
Metric50
  0
DICTIONARYVAR
  5
11F
102
{ACAD_REACTORS
330
103
102
}
330
103
100
DictionaryVariables
280
     0
  1
Metric50
  0
DICTIONARY
  5
120
330
5A
100
AcDbDictionary
280
     1
281
     1
  3
ACAD_ROUNDTRIP_2008_TABLESTYLE_CELLSTYLEMAP
360
121
  0
CELLSTYLEMAP
  5
121
102
{ACAD_REACTORS
330
120
102
}
330
120
100
AcDbCellStyleMap
 90
        3
300
CELLSTYLE
  1
TABLEFORMAT_BEGIN
 90
        5
170
     1
 91
        0
 92
    32768
 62
   257
 93
        1
300
CONTENTFORMAT
  1
CONTENTFORMAT_BEGIN
 90
        0
 91
        0
 92
        4
 93
        0
300

 40
0.0
140
1.0
 94
        5
 62
     0
340
11
144
6.0
309
CONTENTFORMAT_END
171
     1
301
MARGIN
  1
CELLMARGIN_BEGIN
 40
1.5
 40
1.5
 40
1.5
 40
1.5
 40
1.5
 40
1.5
309
CELLMARGIN_END
 94
        6
 95
        1
302
GRIDFORMAT
  1
GRIDFORMAT_BEGIN
 90
        0
 91
        1
 62
     0
 92
       -2
340
14
 93
        0
 40
0.045
309
GRIDFORMAT_END
 95
        2
302
GRIDFORMAT
  1
GRIDFORMAT_BEGIN
 90
        0
 91
        1
 62
     0
 92
       -2
340
14
 93
        0
 40
0.045
309
GRIDFORMAT_END
 95
        4
302
GRIDFORMAT
  1
GRIDFORMAT_BEGIN
 90
        0
 91
        1
 62
     0
 92
       -2
340
14
 93
        0
 40
0.045
309
GRIDFORMAT_END
 95
        8
302
GRIDFORMAT
  1
GRIDFORMAT_BEGIN
 90
        0
 91
        1
 62
     0
 92
       -2
340
14
 93
        0
 40
0.045
309
GRIDFORMAT_END
 95
       16
302
GRIDFORMAT
  1
GRIDFORMAT_BEGIN
 90
        0
 91
        1
 62
     0
 92
       -2
340
14
 93
        0
 40
0.045
309
GRIDFORMAT_END
 95
       32
302
GRIDFORMAT
  1
GRIDFORMAT_BEGIN
 90
        0
 91
        1
 62
     0
 92
       -2
340
14
 93
        0
 40
0.045
309
GRIDFORMAT_END
309
TABLEFORMAT_END
  1
CELLSTYLE_BEGIN
 90
        1
 91
        1
300
_TITLE
309
CELLSTYLE_END
300
CELLSTYLE
  1
TABLEFORMAT_BEGIN
 90
        5
170
     1
 91
        0
 92
        0
 62
   257
 93
        1
300
CONTENTFORMAT
  1
CONTENTFORMAT_BEGIN
 90
        0
 91
        0
 92
        4
 93
        0
300

 40
0.0
140
1.0
 94
        5
 62
     0
340
11
144
4.5
309
CONTENTFORMAT_END
171
     1
301
MARGIN
  1
CELLMARGIN_BEGIN
 40
1.5
 40
1.5
 40
1.5
 40
1.5
 40
1.5
 40
1.5
309
CELLMARGIN_END
 94
        6
 95
        1
302
GRIDFORMAT
  1
GRIDFORMAT_BEGIN
 90
        0
 91
        1
 62
     0
 92
       -2
340
14
 93
        0
 40
0.045
309
GRIDFORMAT_END
 95
        2
302
GRIDFORMAT
  1
GRIDFORMAT_BEGIN
 90
        0
 91
        1
 62
     0
 92
       -2
340
14
 93
        0
 40
0.045
309
GRIDFORMAT_END
 95
        4
302
GRIDFORMAT
  1
GRIDFORMAT_BEGIN
 90
        0
 91
        1
 62
     0
 92
       -2
340
14
 93
        0
 40
0.045
309
GRIDFORMAT_END
 95
        8
302
GRIDFORMAT
  1
GRIDFORMAT_BEGIN
 90
        0
 91
        1
 62
     0
 92
       -2
340
14
 93
        0
 40
0.045
309
GRIDFORMAT_END
 95
       16
302
GRIDFORMAT
  1
GRIDFORMAT_BEGIN
 90
        0
 91
        1
 62
     0
 92
       -2
340
14
 93
        0
 40
0.045
309
GRIDFORMAT_END
 95
       32
302
GRIDFORMAT
  1
GRIDFORMAT_BEGIN
 90
        0
 91
        1
 62
     0
 92
       -2
340
14
 93
        0
 40
0.045
309
GRIDFORMAT_END
309
TABLEFORMAT_END
  1
CELLSTYLE_BEGIN
 90
        2
 91
        1
300
_HEADER
309
CELLSTYLE_END
300
CELLSTYLE
  1
TABLEFORMAT_BEGIN
 90
        5
170
     1
 91
        0
 92
        0
 62
   257
 93
        1
300
CONTENTFORMAT
  1
CONTENTFORMAT_BEGIN
 90
        0
 91
        0
 92
        4
 93
        0
300

 40
0.0
140
1.0
 94
        2
 62
     0
340
11
144
4.5
309
CONTENTFORMAT_END
171
     1
301
MARGIN
  1
CELLMARGIN_BEGIN
 40
1.5
 40
1.5
 40
1.5
 40
1.5
 40
1.5
 40
1.5
309
CELLMARGIN_END
 94
        6
 95
        1
302
GRIDFORMAT
  1
GRIDFORMAT_BEGIN
 90
        0
 91
        1
 62
     0
 92
       -2
340
14
 93
        0
 40
0.045
309
GRIDFORMAT_END
 95
        2
302
GRIDFORMAT
  1
GRIDFORMAT_BEGIN
 90
        0
 91
        1
 62
     0
 92
       -2
340
14
 93
        0
 40
0.045
309
GRIDFORMAT_END
 95
        4
302
GRIDFORMAT
  1
GRIDFORMAT_BEGIN
 90
        0
 91
        1
 62
     0
 92
       -2
340
14
 93
        0
 40
0.045
309
GRIDFORMAT_END
 95
        8
302
GRIDFORMAT
  1
GRIDFORMAT_BEGIN
 90
        0
 91
        1
 62
     0
 92
       -2
340
14
 93
        0
 40
0.045
309
GRIDFORMAT_END
 95
       16
302
GRIDFORMAT
  1
GRIDFORMAT_BEGIN
 90
        0
 91
        1
 62
     0
 92
       -2
340
14
 93
        0
 40
0.045
309
GRIDFORMAT_END
 95
       32
302
GRIDFORMAT
  1
GRIDFORMAT_BEGIN
 90
        0
 91
        1
 62
     0
 92
       -2
340
14
 93
        0
 40
0.045
309
GRIDFORMAT_END
309
TABLEFORMAT_END
  1
CELLSTYLE_BEGIN
 90
        3
 91
        2
300
_DATA
309
CELLSTYLE_END
  0
ENDSEC
  0
EOF
